  0
SECTION
  2
HEADER
  9
$ACADVER
  1
AC1015
  9
$ACADMAINTVER
 70
     6
  9
$DWGCODEPAGE
  3
ANSI_1254
  9
$INSBASE
 10
0.0
 20
0.0
 30
0.0
  9
$EXTMIN
 10
0.0
 20
0.0
 30
0.0
  9
$EXTMAX
 10
279.4
 20
215.9
 30
0.0
  9
$LIMMIN
 10
0.0
 20
0.0
  9
$LIMMAX
 10
279.4
 20
215.9
  9
$ORTHOMODE
 70
     0
  9
$REGENMODE
 70
     1
  9
$FILLMODE
 70
     1
  9
$QTEXTMODE
 70
     0
  9
$MIRRTEXT
 70
     1
  9
$LTSCALE
 40
1.0
  9
$ATTMODE
 70
     1
  9
$TEXTSIZE
 40
3.5
  9
$TRACEWID
 40
1.0
  9
$TEXTSTYLE
  7
Standard
  9
$CLAYER
  8
0
  9
$CELTYPE
  6
ByLayer
  9
$CECOLOR
 62
   256
  9
$CELTSCALE
 40
1.0
  9
$DISPSILH
 70
     0
  9
$DIMSCALE
 40
1.0
  9
$DIMASZ
 40
3.5
  9
$DIMEXO
 40
1.0
  9
$DIMDLI
 40
3.75
  9
$DIMRND
 40
0.0
  9
$DIMDLE
 40
0.0
  9
$DIMEXE
 40
1.0
  9
$DIMTP
 40
0.0
  9
$DIMTM
 40
0.0
  9
$DIMTXT
 40
3.5
  9
$DIMCEN
 40
2.5
  9
$DIMTSZ
 40
0.0
  9
$DIMTOL
 70
     0
  9
$DIMLIM
 70
     0
  9
$DIMTIH
 70
     1
  9
$DIMTOH
 70
     1
  9
$DIMSE1
 70
     0
  9
$DIMSE2
 70
     0
  9
$DIMTAD
 70
     1
  9
$DIMZIN
 70
     0
  9
$DIMBLK
  1

  9
$DIMASO
 70
     1
  9
$DIMSHO
 70
     1
  9
$DIMPOST
  1

  9
$DIMAPOST
  1

  9
$DIMALT
 70
     0
  9
$DIMALTD
 70
     3
  9
$DIMALTF
 40
0.0393700787
  9
$DIMLFAC
 40
1.0
  9
$DIMTOFL
 70
     1
  9
$DIMTVP
 40
0.0
  9
$DIMTIX
 70
     0
  9
$DIMSOXD
 70
     0
  9
$DIMSAH
 70
     0
  9
$DIMBLK1
  1

  9
$DIMBLK2
  1

  9
$DIMSTYLE
  2
ISO-25
  9
$DIMCLRD
 70
     0
  9
$DIMCLRE
 70
     0
  9
$DIMCLRT
 70
     0
  9
$DIMTFAC
 40
1.0
  9
$DIMGAP
 40
1.524
  9
$DIMJUST
 70
     0
  9
$DIMSD1
 70
     0
  9
$DIMSD2
 70
     0
  9
$DIMTOLJ
 70
     0
  9
$DIMTZIN
 70
     0
  9
$DIMALTZ
 70
     0
  9
$DIMALTTZ
 70
     0
  9
$DIMUPT
 70
     0
  9
$DIMDEC
 70
     2
  9
$DIMTDEC
 70
     2
  9
$DIMALTU
 70
     2
  9
$DIMALTTD
 70
     3
  9
$DIMTXSTY
  7
Standard
  9
$DIMAUNIT
 70
     0
  9
$DIMADEC
 70
     2
  9
$DIMALTRND
 40
0.0
  9
$DIMAZIN
 70
     0
  9
$DIMDSEP
 70
    44
  9
$DIMATFIT
 70
     3
  9
$DIMFRAC
 70
     0
  9
$DIMLDRBLK
  1

  9
$DIMLUNIT
 70
     2
  9
$DIMLWD
 70
    -2
  9
$DIMLWE
 70
    -2
  9
$DIMTMOVE
 70
     0
  9
$LUNITS
 70
     2
  9
$LUPREC
 70
     2
  9
$SKETCHINC
 40
1.0
  9
$FILLETRAD
 40
10.0
  9
$AUNITS
 70
     0
  9
$AUPREC
 70
     2
  9
$MENU
  1
.
  9
$ELEVATION
 40
0.0
  9
$PELEVATION
 40
0.0
  9
$THICKNESS
 40
0.0
  9
$LIMCHECK
 70
     0
  9
$CHAMFERA
 40
0.0
  9
$CHAMFERB
 40
0.0
  9
$CHAMFERC
 40
0.0
  9
$CHAMFERD
 40
0.0
  9
$SKPOLY
 70
     0
  9
$TDCREATE
 40
2459741.588749699
  9
$TDUCREATE
 40
2459741.463749699
  9
$TDUPDATE
 40
2459741.588752014
  9
$TDUUPDATE
 40
2459741.463752014
  9
$TDINDWG
 40
0.0000000116
  9
$TDUSRTIMER
 40
0.0000000116
  9
$USRTIMER
 70
     1
  9
$ANGBASE
 50
0.0
  9
$ANGDIR
 70
     0
  9
$PDMODE
 70
     0
  9
$PDSIZE
 40
-1.0
  9
$PLINEWID
 40
0.0
  9
$SPLFRAME
 70
     0
  9
$SPLINETYPE
 70
     6
  9
$SPLINESEGS
 70
     8
  9
$HANDSEED
  5
1C8
  9
$SURFTAB1
 70
     6
  9
$SURFTAB2
 70
     6
  9
$SURFTYPE
 70
     6
  9
$SURFU
 70
     6
  9
$SURFV
 70
     6
  9
$UCSBASE
  2

  9
$UCSNAME
  2

  9
$UCSORG
 10
0.0
 20
0.0
 30
0.0
  9
$UCSXDIR
 10
1.0
 20
0.0
 30
0.0
  9
$UCSYDIR
 10
0.0
 20
1.0
 30
0.0
  9
$UCSORTHOREF
  2

  9
$UCSORTHOVIEW
 70
     0
  9
$UCSORGTOP
 10
0.0
 20
0.0
 30
0.0
  9
$UCSORGBOTTOM
 10
0.0
 20
0.0
 30
0.0
  9
$UCSORGLEFT
 10
0.0
 20
0.0
 30
0.0
  9
$UCSORGRIGHT
 10
0.0
 20
0.0
 30
0.0
  9
$UCSORGFRONT
 10
0.0
 20
0.0
 30
0.0
  9
$UCSORGBACK
 10
0.0
 20
0.0
 30
0.0
  9
$PUCSBASE
  2

  9
$PUCSNAME
  2

  9
$PUCSORG
 10
0.0
 20
0.0
 30
0.0
  9
$PUCSXDIR
 10
1.0
 20
0.0
 30
0.0
  9
$PUCSYDIR
 10
0.0
 20
1.0
 30
0.0
  9
$PUCSORTHOREF
  2

  9
$PUCSORTHOVIEW
 70
     0
  9
$PUCSORGTOP
 10
0.0
 20
0.0
 30
0.0
  9
$PUCSORGBOTTOM
 10
0.0
 20
0.0
 30
0.0
  9
$PUCSORGLEFT
 10
0.0
 20
0.0
 30
0.0
  9
$PUCSORGRIGHT
 10
0.0
 20
0.0
 30
0.0
  9
$PUCSORGFRONT
 10
0.0
 20
0.0
 30
0.0
  9
$PUCSORGBACK
 10
0.0
 20
0.0
 30
0.0
  9
$USERI1
 70
     0
  9
$USERI2
 70
     0
  9
$USERI3
 70
     0
  9
$USERI4
 70
     0
  9
$USERI5
 70
     0
  9
$USERR1
 40
0.0
  9
$USERR2
 40
0.0
  9
$USERR3
 40
0.0
  9
$USERR4
 40
0.0
  9
$USERR5
 40
0.0
  9
$WORLDVIEW
 70
     1
  9
$SHADEDGE
 70
     3
  9
$SHADEDIF
 70
    70
  9
$TILEMODE
 70
     1
  9
$MAXACTVP
 70
    64
  9
$PINSBASE
 10
0.0
 20
0.0
 30
0.0
  9
$PLIMCHECK
 70
     0
  9
$PEXTMIN
 10
1.0000000000E+20
 20
1.0000000000E+20
 30
1.0000000000E+20
  9
$PEXTMAX
 10
-1.0000000000E+20
 20
-1.0000000000E+20
 30
-1.0000000000E+20
  9
$PLIMMIN
 10
0.0
 20
0.0
  9
$PLIMMAX
 10
420.0
 20
297.0
  9
$UNITMODE
 70
     0
  9
$VISRETAIN
 70
     1
  9
$PLINEGEN
 70
     0
  9
$PSLTSCALE
 70
     1
  9
$TREEDEPTH
 70
  3020
  9
$CMLSTYLE
  2
Standard
  9
$CMLJUST
 70
     0
  9
$CMLSCALE
 40
20.0
  9
$PROXYGRAPHICS
 70
     1
  9
$MEASUREMENT
 70
     1
  9
$CELWEIGHT
370
    -1
  9
$ENDCAPS
280
     0
  9
$JOINSTYLE
280
     0
  9
$LWDISPLAY
290
     1
  9
$INSUNITS
 70
     4
  9
$HYPERLINKBASE
  1

  9
$STYLESHEET
  1

  9
$XEDIT
290
     1
  9
$CEPSNTYPE
380
     0
  9
$PSTYLEMODE
290
     1
  9
$FINGERPRINTGUID
  2
{fd74688e-c298-4407-8ad6-59429593d335}
  9
$VERSIONGUID
  2
{FAEB1C32-E019-11D5-929B-00C0DF256EC4}
  9
$EXTNAMES
290
     1
  9
$PSVPSCALE
 40
0.0
  9
$OLESTARTUP
290
     0
  0
ENDSEC
  0
SECTION
  2
CLASSES
  0
CLASS
  1
ACDBDICTIONARYWDFLT
  2
AcDbDictionaryWithDefault
  3
ObjectDBX Classes
 90
        0
280
     0
281
     0
  0
CLASS
  1
VISUALSTYLE
  2
AcDbVisualStyle
  3
ObjectDBX Classes
 90
     4095
280
     0
281
     0
  0
CLASS
  1
MATERIAL
  2
AcDbMaterial
  3
ObjectDBX Classes
 90
     1153
280
     0
281
     0
  0
CLASS
  1
SCALE
  2
AcDbScale
  3
ObjectDBX Classes
 90
     1153
280
     0
281
     0
  0
CLASS
  1
TABLESTYLE
  2
AcDbTableStyle
  3
ObjectDBX Classes
 90
     4095
280
     0
281
     0
  0
CLASS
  1
MLEADERSTYLE
  2
AcDbMLeaderStyle
  3
ACDB_MLEADERSTYLE_CLASS
 90
     4095
280
     0
281
     0
  0
CLASS
  1
SUN
  2
AcDbSun
  3
SCENEOE
 90
     1153
280
     0
281
     0
  0
CLASS
  1
ACDBPLACEHOLDER
  2
AcDbPlaceHolder
  3
ObjectDBX Classes
 90
        0
280
     0
281
     0
  0
CLASS
  1
LAYOUT
  2
AcDbLayout
  3
ObjectDBX Classes
 90
        0
280
     0
281
     0
  0
ENDSEC
  0
SECTION
  2
TABLES
  0
TABLE
  2
VPORT
  5
8
330
0
100
AcDbSymbolTable
 70
     1
  0
VPORT
  5
29
330
8
100
AcDbSymbolTableRecord
100
AcDbViewportTableRecord
  2
*Active
 70
     0
 10
0.0
 20
0.0
 11
1.0
 21
1.0
 12
139.7
 22
107.95
 13
0.0
 23
0.0
 14
10.0
 24
10.0
 15
10.0
 25
10.0
 16
0.0
 26
0.0
 36
1.0
 17
0.0
 27
0.0
 37
0.0
 40
215.9
 41
1.2941176471
 42
50.0
 43
0.0
 44
0.0
 50
0.0
 51
0.0
 71
     0
 72
  2000
 73
     1
 74
     3
 75
     0
 76
     0
 77
     0
 78
     0
281
     0
 65
     1
110
0.0
120
0.0
130
0.0
111
1.0
121
0.0
131
0.0
112
0.0
122
1.0
132
0.0
 79
     0
146
0.0
  0
ENDTAB
  0
TABLE
  2
LTYPE
  5
5
330
0
100
AcDbSymbolTable
 70
     6
  0
LTYPE
  5
14
330
5
100
AcDbSymbolTableRecord
100
AcDbLinetypeTableRecord
  2
ByBlock
 70
     0
  3

 72
    65
 73
     0
 40
0.0
  0
LTYPE
  5
15
330
5
100
AcDbSymbolTableRecord
100
AcDbLinetypeTableRecord
  2
ByLayer
 70
     0
  3

 72
    65
 73
     0
 40
0.0
  0
LTYPE
  5
16
330
5
100
AcDbSymbolTableRecord
100
AcDbLinetypeTableRecord
  2
Continuous
 70
     0
  3
Solid line
 72
    65
 73
     0
 40
0.0
  0
LTYPE
  5
6E
330
5
100
AcDbSymbolTableRecord
100
AcDbLinetypeTableRecord
  2
HIDDEN
 70
     0
  3
Hidden __ __ __ __ __ __ __ __ __ __ __ __ __ __
 72
    65
 73
     2
 40
1.905
 49
1.27
 74
     0
 49
-0.635
 74
     0
  0
LTYPE
  5
6F
330
5
100
AcDbSymbolTableRecord
100
AcDbLinetypeTableRecord
  2
PHANTOM
 70
     0
  3
Phantom ______  __  __  ______  __  __  ______
 72
    65
 73
     6
 40
12.7
 49
6.35
 74
     0
 49
-1.27
 74
     0
 49
1.27
 74
     0
 49
-1.27
 74
     0
 49
1.27
 74
     0
 49
-1.27
 74
     0
  0
LTYPE
  5
70
330
5
100
AcDbSymbolTableRecord
100
AcDbLinetypeTableRecord
  2
CENTER
 70
     0
  3
Center ____ _ ____ _ ____ _ ____ _ ____ _ ____
 72
    65
 73
     4
 40
10.16
 49
6.35
 74
     0
 49
-1.27
 74
     0
 49
1.27
 74
     0
 49
-1.27
 74
     0
  0
LTYPE
  5
71
330
5
100
AcDbSymbolTableRecord
100
AcDbLinetypeTableRecord
  2
CENTERX2
 70
     0
  3
Center (2x) ________  __  ________  __  _____
 72
    65
 73
     4
 40
20.32
 49
12.7
 74
     0
 49
-2.54
 74
     0
 49
2.54
 74
     0
 49
-2.54
 74
     0
  0
LTYPE
  5
72
330
5
100
AcDbSymbolTableRecord
100
AcDbLinetypeTableRecord
  2
DOT2
 70
     0
  3
Dot (.5x) ........................................
 72
    65
 73
     2
 40
0.635
 49
0.0
 74
     0
 49
-0.635
 74
     0
  0
ENDTAB
  0
TABLE
  2
LAYER
  5
2
330
0
100
AcDbSymbolTable
 70
    17
  0
LAYER
  5
10
330
2
100
AcDbSymbolTableRecord
100
AcDbLayerTableRecord
  2
0
 70
     0
 62
     7
  6
Continuous
370
    -3
390
F
  0
LAYER
  5
73
330
2
100
AcDbSymbolTableRecord
100
AcDbLayerTableRecord
  2
FORMAT
 70
     0
 62
     7
  6
Continuous
370
    -3
390
F
  0
LAYER
  5
74
330
2
100
AcDbSymbolTableRecord
100
AcDbLayerTableRecord
  2
YARDIMCI_GEOMETRI
 70
     0
 62
    -6
  6
Continuous
290
     0
370
    -3
390
F
  0
LAYER
  5
75
330
2
100
AcDbSymbolTableRecord
100
AcDbLayerTableRecord
  2
SAYFA_CERCEVESI
 70
     0
 62
     7
  6
Continuous
370
    25
390
F
  0
LAYER
  5
76
330
2
100
AcDbSymbolTableRecord
100
AcDbLayerTableRecord
  2
ANTET
 70
     0
 62
     7
  6
Continuous
370
    -3
390
F
  0
LAYER
  5
77
330
2
100
AcDbSymbolTableRecord
100
AcDbLayerTableRecord
  2
OLCU
 70
     0
 62
   150
  6
Continuous
370
    -3
390
F
  0
LAYER
  5
78
330
2
100
AcDbSymbolTableRecord
100
AcDbLayerTableRecord
  2
METIN
 70
     0
 62
    96
  6
Continuous
370
    -3
390
F
  0
LAYER
  5
79
330
2
100
AcDbSymbolTableRecord
100
AcDbLayerTableRecord
  2
BALON
 70
     0
 62
     5
  6
Continuous
370
    -3
390
F
  0
LAYER
  5
7A
330
2
100
AcDbSymbolTableRecord
100
AcDbLayerTableRecord
  2
VURGU
 70
     0
 62
     7
  6
Continuous
370
    -3
390
F
  0
LAYER
  5
7B
330
2
100
AcDbSymbolTableRecord
100
AcDbLayerTableRecord
  2
SILIK
 70
     0
 62
     7
  6
Continuous
370
    -3
390
F
  0
LAYER
  5
7C
330
2
100
AcDbSymbolTableRecord
100
AcDbLayerTableRecord
  2
MODEL
 70
     0
 62
     7
  6
Continuous
370
    -3
390
F
  0
LAYER
  5
7D
330
2
100
AcDbSymbolTableRecord
100
AcDbLayerTableRecord
  2
DETAYLANDıRMA
 70
     0
 62
   190
  6
Continuous
370
    -3
390
F
  0
LAYER
  5
7E
330
2
100
AcDbSymbolTableRecord
100
AcDbLayerTableRecord
  2
TOLERANS
 70
     0
 62
   230
  6
Continuous
370
    -3
390
F
  0
LAYER
  5
7F
330
2
100
AcDbSymbolTableRecord
100
AcDbLayerTableRecord
  2
MERKEZ_CIZGILERI
 70
     0
 62
    30
  6
Continuous
370
    -3
390
F
  0
LAYER
  5
80
330
2
100
AcDbSymbolTableRecord
100
AcDbLayerTableRecord
  2
KESIT-DETAY_CIZGILERI
 70
     0
 62
     7
  6
Continuous
370
    -3
390
F
  0
LAYER
  5
81
330
2
100
AcDbSymbolTableRecord
100
AcDbLayerTableRecord
  2
\U+041E\U+0421\U+0415\U+0412\U+042B\U+0415
 70
     0
 62
     7
  6
Continuous
370
    -3
390
F
  0
LAYER
  5
82
330
2
100
AcDbSymbolTableRecord
100
AcDbLayerTableRecord
  2
\U+0412\U+041E\U+0414\U+042F\U+041D\U+042B\U+0415_\U+0417\U+041D\U+0410\U+041A\U+0418
 70
     0
 62
    11
  6
Continuous
370
    -3
390
F
  0
ENDTAB
  0
TABLE
  2
STYLE
  5
3
330
0
100
AcDbSymbolTable
 70
     1
  0
STYLE
  5
11
330
3
100
AcDbSymbolTableRecord
100
AcDbTextStyleTableRecord
  2
Standard
 70
     0
 40
0.0
 41
1.0
 50
0.0
 71
     0
 42
3.5
  3
txt
  4

  0
ENDTAB
  0
TABLE
  2
VIEW
  5
6
330
0
100
AcDbSymbolTable
 70
     0
  0
ENDTAB
  0
TABLE
  2
UCS
  5
7
330
0
100
AcDbSymbolTable
 70
     0
  0
ENDTAB
  0
TABLE
  2
APPID
  5
9
330
0
100
AcDbSymbolTable
 70
     1
  0
APPID
  5
12
330
9
100
AcDbSymbolTableRecord
100
AcDbRegAppTableRecord
  2
ACAD
 70
     0
  0
ENDTAB
  0
TABLE
  2
DIMSTYLE
  5
A
330
0
100
AcDbSymbolTable
 70
     1
100
AcDbDimStyleTable
  0
DIMSTYLE
105
27
330
A
100
AcDbSymbolTableRecord
100
AcDbDimStyleTableRecord
  2
ISO-25
 70
     0
 41
2.5
 42
0.625
 43
3.75
 44
1.25
 73
     0
 74
     0
 77
     1
 78
     8
140
2.5
141
2.5
143
0.0393700787
147
0.625
171
     3
172
     1
178
     0
271
     2
272
     2
274
     3
278
    44
283
     0
284
     8
340
11
  0
ENDTAB
  0
TABLE
  2
BLOCK_RECORD
  5
1
330
0
100
AcDbSymbolTable
 70
    14
  0
BLOCK_RECORD
  5
1F
330
1
100
AcDbSymbolTableRecord
100
AcDbBlockTableRecord
  2
*Model_Space
340
22
  0
BLOCK_RECORD
  5
1B
330
1
100
AcDbSymbolTableRecord
100
AcDbBlockTableRecord
  2
*Paper_Space
340
1E
  0
BLOCK_RECORD
  5
23
330
1
100
AcDbSymbolTableRecord
100
AcDbBlockTableRecord
  2
*Paper_Space0
340
26
  0
BLOCK_RECORD
  5
9F
330
1
100
AcDbSymbolTableRecord
100
AcDbBlockTableRecord
  2
SW_CENTERMARKSYMBOL_0
340
0
102
{BLKREFS
331
AA
102
}
  0
BLOCK_RECORD
  5
AB
330
1
100
AcDbSymbolTableRecord
100
AcDbBlockTableRecord
  2
SW_CENTERMARKSYMBOL_1
340
0
102
{BLKREFS
331
B6
102
}
  0
BLOCK_RECORD
  5
B7
330
1
100
AcDbSymbolTableRecord
100
AcDbBlockTableRecord
  2
SW_CENTERMARKSYMBOL_2
340
0
102
{BLKREFS
331
C2
102
}
  0
BLOCK_RECORD
  5
C3
330
1
100
AcDbSymbolTableRecord
100
AcDbBlockTableRecord
  2
SW_CENTERMARKSYMBOL_3
340
0
102
{BLKREFS
331
CE
102
}
  0
BLOCK_RECORD
  5
CF
330
1
100
AcDbSymbolTableRecord
100
AcDbBlockTableRecord
  2
SW_CENTERMARKSYMBOL_4
340
0
102
{BLKREFS
331
DA
102
}
  0
BLOCK_RECORD
  5
DB
330
1
100
AcDbSymbolTableRecord
100
AcDbBlockTableRecord
  2
SW_CENTERMARKSYMBOL_5
340
0
102
{BLKREFS
331
E6
102
}
  0
BLOCK_RECORD
  5
E7
330
1
100
AcDbSymbolTableRecord
100
AcDbBlockTableRecord
  2
SW_CENTERMARKSYMBOL_6
340
0
102
{BLKREFS
331
F2
102
}
  0
BLOCK_RECORD
  5
F3
330
1
100
AcDbSymbolTableRecord
100
AcDbBlockTableRecord
  2
SW_CENTERMARKSYMBOL_7
340
0
102
{BLKREFS
331
FE
102
}
  0
BLOCK_RECORD
  5
FF
330
1
100
AcDbSymbolTableRecord
100
AcDbBlockTableRecord
  2
SW_CENTERMARKSYMBOL_8
340
0
102
{BLKREFS
331
10A
102
}
  0
BLOCK_RECORD
  5
10B
330
1
100
AcDbSymbolTableRecord
100
AcDbBlockTableRecord
  2
SW_CENTERMARKSYMBOL_9
340
0
102
{BLKREFS
331
116
102
}
  0
BLOCK_RECORD
  5
117
330
1
100
AcDbSymbolTableRecord
100
AcDbBlockTableRecord
  2
SW_CENTERMARKSYMBOL_10
340
0
102
{BLKREFS
331
122
102
}
  0
BLOCK_RECORD
  5
123
330
1
100
AcDbSymbolTableRecord
100
AcDbBlockTableRecord
  2
SW_CENTERMARKSYMBOL_11
340
0
102
{BLKREFS
331
12E
102
}
  0
BLOCK_RECORD
  5
12F
330
1
100
AcDbSymbolTableRecord
100
AcDbBlockTableRecord
  2
SW_CENTERMARKSYMBOL_12
340
0
102
{BLKREFS
331
13A
102
}
  0
ENDTAB
  0
ENDSEC
  0
SECTION
  2
BLOCKS
  0
BLOCK
  5
20
330
1F
100
AcDbEntity
  8
0
100
AcDbBlockBegin
  2
*Model_Space
 70
     0
 10
0.0
 20
0.0
 30
0.0
  3
*Model_Space
  1

  0
ENDBLK
  5
21
330
1F
100
AcDbEntity
  8
0
100
AcDbBlockEnd
  0
BLOCK
  5
1C
330
1B
100
AcDbEntity
 67
     1
  8
0
100
AcDbBlockBegin
  2
*Paper_Space
 70
     0
 10
0.0
 20
0.0
 30
0.0
  3
*Paper_Space
  1

  0
ENDBLK
  5
1D
330
1B
100
AcDbEntity
 67
     1
  8
0
100
AcDbBlockEnd
  0
BLOCK
  5
24
330
23
100
AcDbEntity
  8
0
100
AcDbBlockBegin
  2
*Paper_Space0
 70
     0
 10
0.0
 20
0.0
 30
0.0
  3
*Paper_Space0
  1

  0
ENDBLK
  5
25
330
23
100
AcDbEntity
  8
0
100
AcDbBlockEnd
  0
BLOCK
  5
A0
330
9F
100
AcDbEntity
  8
0
100
AcDbBlockBegin
  2
SW_CENTERMARKSYMBOL_0
 70
     0
 10
0.0
 20
0.0
 30
0.0
  3
SW_CENTERMARKSYMBOL_0
  1

  0
LINE
  5
A2
330
9F
100
AcDbEntity
  8
FORMAT
 62
     0
100
AcDbLine
 10
0.0
 20
0.0
 30
0.0
 11
0.0
 21
2.5
 31
0.0
  0
LINE
  5
A3
330
9F
100
AcDbEntity
  8
FORMAT
 62
     0
100
AcDbLine
 10
0.0
 20
0.0
 30
0.0
 11
-2.5
 21
0.0
 31
0.0
  0
LINE
  5
A4
330
9F
100
AcDbEntity
  8
FORMAT
 62
     0
100
AcDbLine
 10
0.0
 20
0.0
 30
0.0
 11
0.0
 21
-2.5
 31
0.0
  0
LINE
  5
A5
330
9F
100
AcDbEntity
  8
FORMAT
 62
     0
100
AcDbLine
 10
0.0
 20
0.0
 30
0.0
 11
2.5
 21
0.0
 31
0.0
  0
LINE
  5
A6
330
9F
100
AcDbEntity
  8
FORMAT
 62
     0
100
AcDbLine
 10
0.0
 20
5.0
 30
0.0
 11
0.0
 21
269.0
 31
0.0
  0
LINE
  5
A7
330
9F
100
AcDbEntity
  8
FORMAT
 62
     0
100
AcDbLine
 10
-5.0
 20
0.0
 30
0.0
 11
-269.0
 21
0.0
 31
0.0
  0
LINE
  5
A8
330
9F
100
AcDbEntity
  8
FORMAT
 62
     0
100
AcDbLine
 10
0.0
 20
-5.0
 30
0.0
 11
0.0
 21
-269.0
 31
0.0
  0
LINE
  5
A9
330
9F
100
AcDbEntity
  8
FORMAT
 62
     0
100
AcDbLine
 10
5.0
 20
0.0
 30
0.0
 11
269.0
 21
0.0
 31
0.0
  0
ENDBLK
  5
A1
330
9F
100
AcDbEntity
  8
0
100
AcDbBlockEnd
  0
BLOCK
  5
AC
330
AB
100
AcDbEntity
  8
0
100
AcDbBlockBegin
  2
SW_CENTERMARKSYMBOL_1
 70
     0
 10
0.0
 20
0.0
 30
0.0
  3
SW_CENTERMARKSYMBOL_1
  1

  0
LINE
  5
AE
330
AB
100
AcDbEntity
  8
FORMAT
 62
     0
100
AcDbLine
 10
0.0
 20
0.0
 30
0.0
 11
0.0
 21
2.5
 31
0.0
  0
LINE
  5
AF
330
AB
100
AcDbEntity
  8
FORMAT
 62
     0
100
AcDbLine
 10
0.0
 20
0.0
 30
0.0
 11
-2.5
 21
0.0
 31
0.0
  0
LINE
  5
B0
330
AB
100
AcDbEntity
  8
FORMAT
 62
     0
100
AcDbLine
 10
0.0
 20
0.0
 30
0.0
 11
0.0
 21
-2.5
 31
0.0
  0
LINE
  5
B1
330
AB
100
AcDbEntity
  8
FORMAT
 62
     0
100
AcDbLine
 10
0.0
 20
0.0
 30
0.0
 11
2.5
 21
0.0
 31
0.0
  0
LINE
  5
B2
330
AB
100
AcDbEntity
  8
FORMAT
 62
     0
100
AcDbLine
 10
0.0
 20
5.0
 30
0.0
 11
0.0
 21
16.75
 31
0.0
  0
LINE
  5
B3
330
AB
100
AcDbEntity
  8
FORMAT
 62
     0
100
AcDbLine
 10
-5.0
 20
0.0
 30
0.0
 11
-16.75
 21
0.0
 31
0.0
  0
LINE
  5
B4
330
AB
100
AcDbEntity
  8
FORMAT
 62
     0
100
AcDbLine
 10
0.0
 20
-5.0
 30
0.0
 11
0.0
 21
-16.75
 31
0.0
  0
LINE
  5
B5
330
AB
100
AcDbEntity
  8
FORMAT
 62
     0
100
AcDbLine
 10
5.0
 20
0.0
 30
0.0
 11
16.75
 21
0.0
 31
0.0
  0
ENDBLK
  5
AD
330
AB
100
AcDbEntity
  8
0
100
AcDbBlockEnd
  0
BLOCK
  5
B8
330
B7
100
AcDbEntity
  8
0
100
AcDbBlockBegin
  2
SW_CENTERMARKSYMBOL_2
 70
     0
 10
0.0
 20
0.0
 30
0.0
  3
SW_CENTERMARKSYMBOL_2
  1

  0
LINE
  5
BA
330
B7
100
AcDbEntity
  8
FORMAT
 62
     0
100
AcDbLine
 10
0.0
 20
0.0
 30
0.0
 11
0.0
 21
2.5
 31
0.0
  0
LINE
  5
BB
330
B7
100
AcDbEntity
  8
FORMAT
 62
     0
100
AcDbLine
 10
0.0
 20
0.0
 30
0.0
 11
-2.5
 21
0.0
 31
0.0
  0
LINE
  5
BC
330
B7
100
AcDbEntity
  8
FORMAT
 62
     0
100
AcDbLine
 10
0.0
 20
0.0
 30
0.0
 11
0.0
 21
-2.5
 31
0.0
  0
LINE
  5
BD
330
B7
100
AcDbEntity
  8
FORMAT
 62
     0
100
AcDbLine
 10
0.0
 20
0.0
 30
0.0
 11
2.5
 21
0.0
 31
0.0
  0
LINE
  5
BE
330
B7
100
AcDbEntity
  8
FORMAT
 62
     0
100
AcDbLine
 10
0.0
 20
5.0
 30
0.0
 11
0.0
 21
16.75
 31
0.0
  0
LINE
  5
BF
330
B7
100
AcDbEntity
  8
FORMAT
 62
     0
100
AcDbLine
 10
-5.0
 20
0.0
 30
0.0
 11
-16.75
 21
0.0
 31
0.0
  0
LINE
  5
C0
330
B7
100
AcDbEntity
  8
FORMAT
 62
     0
100
AcDbLine
 10
0.0
 20
-5.0
 30
0.0
 11
0.0
 21
-16.75
 31
0.0
  0
LINE
  5
C1
330
B7
100
AcDbEntity
  8
FORMAT
 62
     0
100
AcDbLine
 10
5.0
 20
0.0
 30
0.0
 11
16.75
 21
0.0
 31
0.0
  0
ENDBLK
  5
B9
330
B7
100
AcDbEntity
  8
0
100
AcDbBlockEnd
  0
BLOCK
  5
C4
330
C3
100
AcDbEntity
  8
0
100
AcDbBlockBegin
  2
SW_CENTERMARKSYMBOL_3
 70
     0
 10
0.0
 20
0.0
 30
0.0
  3
SW_CENTERMARKSYMBOL_3
  1

  0
LINE
  5
C6
330
C3
100
AcDbEntity
  8
FORMAT
 62
     0
100
AcDbLine
 10
0.0
 20
0.0
 30
0.0
 11
0.0
 21
2.5
 31
0.0
  0
LINE
  5
C7
330
C3
100
AcDbEntity
  8
FORMAT
 62
     0
100
AcDbLine
 10
0.0
 20
0.0
 30
0.0
 11
-2.5
 21
0.0
 31
0.0
  0
LINE
  5
C8
330
C3
100
AcDbEntity
  8
FORMAT
 62
     0
100
AcDbLine
 10
0.0
 20
0.0
 30
0.0
 11
0.0
 21
-2.5
 31
0.0
  0
LINE
  5
C9
330
C3
100
AcDbEntity
  8
FORMAT
 62
     0
100
AcDbLine
 10
0.0
 20
0.0
 30
0.0
 11
2.5
 21
0.0
 31
0.0
  0
LINE
  5
CA
330
C3
100
AcDbEntity
  8
FORMAT
 62
     0
100
AcDbLine
 10
0.0
 20
5.0
 30
0.0
 11
0.0
 21
16.75
 31
0.0
  0
LINE
  5
CB
330
C3
100
AcDbEntity
  8
FORMAT
 62
     0
100
AcDbLine
 10
-5.0
 20
0.0
 30
0.0
 11
-16.75
 21
0.0
 31
0.0
  0
LINE
  5
CC
330
C3
100
AcDbEntity
  8
FORMAT
 62
     0
100
AcDbLine
 10
0.0
 20
-5.0
 30
0.0
 11
0.0
 21
-16.75
 31
0.0
  0
LINE
  5
CD
330
C3
100
AcDbEntity
  8
FORMAT
 62
     0
100
AcDbLine
 10
5.0
 20
0.0
 30
0.0
 11
16.75
 21
0.0
 31
0.0
  0
ENDBLK
  5
C5
330
C3
100
AcDbEntity
  8
0
100
AcDbBlockEnd
  0
BLOCK
  5
D0
330
CF
100
AcDbEntity
  8
0
100
AcDbBlockBegin
  2
SW_CENTERMARKSYMBOL_4
 70
     0
 10
0.0
 20
0.0
 30
0.0
  3
SW_CENTERMARKSYMBOL_4
  1

  0
LINE
  5
D2
330
CF
100
AcDbEntity
  8
FORMAT
 62
     0
100
AcDbLine
 10
0.0
 20
0.0
 30
0.0
 11
0.0
 21
2.5
 31
0.0
  0
LINE
  5
D3
330
CF
100
AcDbEntity
  8
FORMAT
 62
     0
100
AcDbLine
 10
0.0
 20
0.0
 30
0.0
 11
-2.5
 21
0.0
 31
0.0
  0
LINE
  5
D4
330
CF
100
AcDbEntity
  8
FORMAT
 62
     0
100
AcDbLine
 10
0.0
 20
0.0
 30
0.0
 11
0.0
 21
-2.5
 31
0.0
  0
LINE
  5
D5
330
CF
100
AcDbEntity
  8
FORMAT
 62
     0
100
AcDbLine
 10
0.0
 20
0.0
 30
0.0
 11
2.5
 21
0.0
 31
0.0
  0
LINE
  5
D6
330
CF
100
AcDbEntity
  8
FORMAT
 62
     0
100
AcDbLine
 10
0.0
 20
5.0
 30
0.0
 11
0.0
 21
16.75
 31
0.0
  0
LINE
  5
D7
330
CF
100
AcDbEntity
  8
FORMAT
 62
     0
100
AcDbLine
 10
-5.0
 20
0.0
 30
0.0
 11
-16.75
 21
0.0
 31
0.0
  0
LINE
  5
D8
330
CF
100
AcDbEntity
  8
FORMAT
 62
     0
100
AcDbLine
 10
0.0
 20
-5.0
 30
0.0
 11
0.0
 21
-16.75
 31
0.0
  0
LINE
  5
D9
330
CF
100
AcDbEntity
  8
FORMAT
 62
     0
100
AcDbLine
 10
5.0
 20
0.0
 30
0.0
 11
16.75
 21
0.0
 31
0.0
  0
ENDBLK
  5
D1
330
CF
100
AcDbEntity
  8
0
100
AcDbBlockEnd
  0
BLOCK
  5
DC
330
DB
100
AcDbEntity
  8
0
100
AcDbBlockBegin
  2
SW_CENTERMARKSYMBOL_5
 70
     0
 10
0.0
 20
0.0
 30
0.0
  3
SW_CENTERMARKSYMBOL_5
  1

  0
LINE
  5
DE
330
DB
100
AcDbEntity
  8
FORMAT
 62
     0
100
AcDbLine
 10
0.0
 20
0.0
 30
0.0
 11
0.0
 21
2.5
 31
0.0
  0
LINE
  5
DF
330
DB
100
AcDbEntity
  8
FORMAT
 62
     0
100
AcDbLine
 10
0.0
 20
0.0
 30
0.0
 11
-2.5
 21
0.0
 31
0.0
  0
LINE
  5
E0
330
DB
100
AcDbEntity
  8
FORMAT
 62
     0
100
AcDbLine
 10
0.0
 20
0.0
 30
0.0
 11
0.0
 21
-2.5
 31
0.0
  0
LINE
  5
E1
330
DB
100
AcDbEntity
  8
FORMAT
 62
     0
100
AcDbLine
 10
0.0
 20
0.0
 30
0.0
 11
2.5
 21
0.0
 31
0.0
  0
LINE
  5
E2
330
DB
100
AcDbEntity
  8
FORMAT
 62
     0
100
AcDbLine
 10
0.0
 20
5.0
 30
0.0
 11
0.0
 21
17.75
 31
0.0
  0
LINE
  5
E3
330
DB
100
AcDbEntity
  8
FORMAT
 62
     0
100
AcDbLine
 10
-5.0
 20
0.0
 30
0.0
 11
-17.75
 21
0.0
 31
0.0
  0
LINE
  5
E4
330
DB
100
AcDbEntity
  8
FORMAT
 62
     0
100
AcDbLine
 10
0.0
 20
-5.0
 30
0.0
 11
0.0
 21
-17.75
 31
0.0
  0
LINE
  5
E5
330
DB
100
AcDbEntity
  8
FORMAT
 62
     0
100
AcDbLine
 10
5.0
 20
0.0
 30
0.0
 11
17.75
 21
0.0
 31
0.0
  0
ENDBLK
  5
DD
330
DB
100
AcDbEntity
  8
0
100
AcDbBlockEnd
  0
BLOCK
  5
E8
330
E7
100
AcDbEntity
  8
0
100
AcDbBlockBegin
  2
SW_CENTERMARKSYMBOL_6
 70
     0
 10
0.0
 20
0.0
 30
0.0
  3
SW_CENTERMARKSYMBOL_6
  1

  0
LINE
  5
EA
330
E7
100
AcDbEntity
  8
FORMAT
 62
     0
100
AcDbLine
 10
0.0
 20
0.0
 30
0.0
 11
0.0
 21
2.5
 31
0.0
  0
LINE
  5
EB
330
E7
100
AcDbEntity
  8
FORMAT
 62
     0
100
AcDbLine
 10
0.0
 20
0.0
 30
0.0
 11
-2.5
 21
0.0
 31
0.0
  0
LINE
  5
EC
330
E7
100
AcDbEntity
  8
FORMAT
 62
     0
100
AcDbLine
 10
0.0
 20
0.0
 30
0.0
 11
0.0
 21
-2.5
 31
0.0
  0
LINE
  5
ED
330
E7
100
AcDbEntity
  8
FORMAT
 62
     0
100
AcDbLine
 10
0.0
 20
0.0
 30
0.0
 11
2.5
 21
0.0
 31
0.0
  0
LINE
  5
EE
330
E7
100
AcDbEntity
  8
FORMAT
 62
     0
100
AcDbLine
 10
0.0
 20
5.0
 30
0.0
 11
0.0
 21
17.75
 31
0.0
  0
LINE
  5
EF
330
E7
100
AcDbEntity
  8
FORMAT
 62
     0
100
AcDbLine
 10
-5.0
 20
0.0
 30
0.0
 11
-17.75
 21
0.0
 31
0.0
  0
LINE
  5
F0
330
E7
100
AcDbEntity
  8
FORMAT
 62
     0
100
AcDbLine
 10
0.0
 20
-5.0
 30
0.0
 11
0.0
 21
-17.75
 31
0.0
  0
LINE
  5
F1
330
E7
100
AcDbEntity
  8
FORMAT
 62
     0
100
AcDbLine
 10
5.0
 20
0.0
 30
0.0
 11
17.75
 21
0.0
 31
0.0
  0
ENDBLK
  5
E9
330
E7
100
AcDbEntity
  8
0
100
AcDbBlockEnd
  0
BLOCK
  5
F4
330
F3
100
AcDbEntity
  8
0
100
AcDbBlockBegin
  2
SW_CENTERMARKSYMBOL_7
 70
     0
 10
0.0
 20
0.0
 30
0.0
  3
SW_CENTERMARKSYMBOL_7
  1

  0
LINE
  5
F6
330
F3
100
AcDbEntity
  8
FORMAT
 62
     0
100
AcDbLine
 10
0.0
 20
0.0
 30
0.0
 11
0.0
 21
2.5
 31
0.0
  0
LINE
  5
F7
330
F3
100
AcDbEntity
  8
FORMAT
 62
     0
100
AcDbLine
 10
0.0
 20
0.0
 30
0.0
 11
-2.5
 21
0.0
 31
0.0
  0
LINE
  5
F8
330
F3
100
AcDbEntity
  8
FORMAT
 62
     0
100
AcDbLine
 10
0.0
 20
0.0
 30
0.0
 11
0.0
 21
-2.5
 31
0.0
  0
LINE
  5
F9
330
F3
100
AcDbEntity
  8
FORMAT
 62
     0
100
AcDbLine
 10
0.0
 20
0.0
 30
0.0
 11
2.5
 21
0.0
 31
0.0
  0
LINE
  5
FA
330
F3
100
AcDbEntity
  8
FORMAT
 62
     0
100
AcDbLine
 10
0.0
 20
5.0
 30
0.0
 11
0.0
 21
17.75
 31
0.0
  0
LINE
  5
FB
330
F3
100
AcDbEntity
  8
FORMAT
 62
     0
100
AcDbLine
 10
-5.0
 20
0.0
 30
0.0
 11
-17.75
 21
0.0
 31
0.0
  0
LINE
  5
FC
330
F3
100
AcDbEntity
  8
FORMAT
 62
     0
100
AcDbLine
 10
0.0
 20
-5.0
 30
0.0
 11
0.0
 21
-17.75
 31
0.0
  0
LINE
  5
FD
330
F3
100
AcDbEntity
  8
FORMAT
 62
     0
100
AcDbLine
 10
5.0
 20
0.0
 30
0.0
 11
17.75
 21
0.0
 31
0.0
  0
ENDBLK
  5
F5
330
F3
100
AcDbEntity
  8
0
100
AcDbBlockEnd
  0
BLOCK
  5
100
330
FF
100
AcDbEntity
  8
0
100
AcDbBlockBegin
  2
SW_CENTERMARKSYMBOL_8
 70
     0
 10
0.0
 20
0.0
 30
0.0
  3
SW_CENTERMARKSYMBOL_8
  1

  0
LINE
  5
102
330
FF
100
AcDbEntity
  8
FORMAT
 62
     0
100
AcDbLine
 10
0.0
 20
0.0
 30
0.0
 11
0.0
 21
2.5
 31
0.0
  0
LINE
  5
103
330
FF
100
AcDbEntity
  8
FORMAT
 62
     0
100
AcDbLine
 10
0.0
 20
0.0
 30
0.0
 11
-2.5
 21
0.0
 31
0.0
  0
LINE
  5
104
330
FF
100
AcDbEntity
  8
FORMAT
 62
     0
100
AcDbLine
 10
0.0
 20
0.0
 30
0.0
 11
0.0
 21
-2.5
 31
0.0
  0
LINE
  5
105
330
FF
100
AcDbEntity
  8
FORMAT
 62
     0
100
AcDbLine
 10
0.0
 20
0.0
 30
0.0
 11
2.5
 21
0.0
 31
0.0
  0
LINE
  5
106
330
FF
100
AcDbEntity
  8
FORMAT
 62
     0
100
AcDbLine
 10
0.0
 20
5.0
 30
0.0
 11
0.0
 21
17.75
 31
0.0
  0
LINE
  5
107
330
FF
100
AcDbEntity
  8
FORMAT
 62
     0
100
AcDbLine
 10
-5.0
 20
0.0
 30
0.0
 11
-17.75
 21
0.0
 31
0.0
  0
LINE
  5
108
330
FF
100
AcDbEntity
  8
FORMAT
 62
     0
100
AcDbLine
 10
0.0
 20
-5.0
 30
0.0
 11
0.0
 21
-17.75
 31
0.0
  0
LINE
  5
109
330
FF
100
AcDbEntity
  8
FORMAT
 62
     0
100
AcDbLine
 10
5.0
 20
0.0
 30
0.0
 11
17.75
 21
0.0
 31
0.0
  0
ENDBLK
  5
101
330
FF
100
AcDbEntity
  8
0
100
AcDbBlockEnd
  0
BLOCK
  5
10C
330
10B
100
AcDbEntity
  8
0
100
AcDbBlockBegin
  2
SW_CENTERMARKSYMBOL_9
 70
     0
 10
0.0
 20
0.0
 30
0.0
  3
SW_CENTERMARKSYMBOL_9
  1

  0
LINE
  5
10E
330
10B
100
AcDbEntity
  8
FORMAT
 62
     0
100
AcDbLine
 10
0.0
 20
0.0
 30
0.0
 11
0.0
 21
2.5
 31
0.0
  0
LINE
  5
10F
330
10B
100
AcDbEntity
  8
FORMAT
 62
     0
100
AcDbLine
 10
0.0
 20
0.0
 30
0.0
 11
-2.5
 21
0.0
 31
0.0
  0
LINE
  5
110
330
10B
100
AcDbEntity
  8
FORMAT
 62
     0
100
AcDbLine
 10
0.0
 20
0.0
 30
0.0
 11
0.0
 21
-2.5
 31
0.0
  0
LINE
  5
111
330
10B
100
AcDbEntity
  8
FORMAT
 62
     0
100
AcDbLine
 10
0.0
 20
0.0
 30
0.0
 11
2.5
 21
0.0
 31
0.0
  0
LINE
  5
112
330
10B
100
AcDbEntity
  8
FORMAT
 62
     0
100
AcDbLine
 10
0.0
 20
5.0
 30
0.0
 11
0.0
 21
17.75
 31
0.0
  0
LINE
  5
113
330
10B
100
AcDbEntity
  8
FORMAT
 62
     0
100
AcDbLine
 10
-5.0
 20
0.0
 30
0.0
 11
-17.75
 21
0.0
 31
0.0
  0
LINE
  5
114
330
10B
100
AcDbEntity
  8
FORMAT
 62
     0
100
AcDbLine
 10
0.0
 20
-5.0
 30
0.0
 11
0.0
 21
-17.75
 31
0.0
  0
LINE
  5
115
330
10B
100
AcDbEntity
  8
FORMAT
 62
     0
100
AcDbLine
 10
5.0
 20
0.0
 30
0.0
 11
17.75
 21
0.0
 31
0.0
  0
ENDBLK
  5
10D
330
10B
100
AcDbEntity
  8
0
100
AcDbBlockEnd
  0
BLOCK
  5
118
330
117
100
AcDbEntity
  8
0
100
AcDbBlockBegin
  2
SW_CENTERMARKSYMBOL_10
 70
     0
 10
0.0
 20
0.0
 30
0.0
  3
SW_CENTERMARKSYMBOL_10
  1

  0
LINE
  5
11A
330
117
100
AcDbEntity
  8
FORMAT
 62
     0
100
AcDbLine
 10
0.0
 20
0.0
 30
0.0
 11
0.0
 21
2.5
 31
0.0
  0
LINE
  5
11B
330
117
100
AcDbEntity
  8
FORMAT
 62
     0
100
AcDbLine
 10
0.0
 20
0.0
 30
0.0
 11
-2.5
 21
0.0
 31
0.0
  0
LINE
  5
11C
330
117
100
AcDbEntity
  8
FORMAT
 62
     0
100
AcDbLine
 10
0.0
 20
0.0
 30
0.0
 11
0.0
 21
-2.5
 31
0.0
  0
LINE
  5
11D
330
117
100
AcDbEntity
  8
FORMAT
 62
     0
100
AcDbLine
 10
0.0
 20
0.0
 30
0.0
 11
2.5
 21
0.0
 31
0.0
  0
LINE
  5
11E
330
117
100
AcDbEntity
  8
FORMAT
 62
     0
100
AcDbLine
 10
0.0
 20
5.0
 30
0.0
 11
0.0
 21
17.75
 31
0.0
  0
LINE
  5
11F
330
117
100
AcDbEntity
  8
FORMAT
 62
     0
100
AcDbLine
 10
-5.0
 20
0.0
 30
0.0
 11
-17.75
 21
0.0
 31
0.0
  0
LINE
  5
120
330
117
100
AcDbEntity
  8
FORMAT
 62
     0
100
AcDbLine
 10
0.0
 20
-5.0
 30
0.0
 11
0.0
 21
-17.75
 31
0.0
  0
LINE
  5
121
330
117
100
AcDbEntity
  8
FORMAT
 62
     0
100
AcDbLine
 10
5.0
 20
0.0
 30
0.0
 11
17.75
 21
0.0
 31
0.0
  0
ENDBLK
  5
119
330
117
100
AcDbEntity
  8
0
100
AcDbBlockEnd
  0
BLOCK
  5
124
330
123
100
AcDbEntity
  8
0
100
AcDbBlockBegin
  2
SW_CENTERMARKSYMBOL_11
 70
     0
 10
0.0
 20
0.0
 30
0.0
  3
SW_CENTERMARKSYMBOL_11
  1

  0
LINE
  5
126
330
123
100
AcDbEntity
  8
FORMAT
 62
     0
100
AcDbLine
 10
0.0
 20
0.0
 30
0.0
 11
0.0
 21
2.5
 31
0.0
  0
LINE
  5
127
330
123
100
AcDbEntity
  8
FORMAT
 62
     0
100
AcDbLine
 10
0.0
 20
0.0
 30
0.0
 11
-2.5
 21
0.0
 31
0.0
  0
LINE
  5
128
330
123
100
AcDbEntity
  8
FORMAT
 62
     0
100
AcDbLine
 10
0.0
 20
0.0
 30
0.0
 11
0.0
 21
-2.5
 31
0.0
  0
LINE
  5
129
330
123
100
AcDbEntity
  8
FORMAT
 62
     0
100
AcDbLine
 10
0.0
 20
0.0
 30
0.0
 11
2.5
 21
0.0
 31
0.0
  0
LINE
  5
12A
330
123
100
AcDbEntity
  8
FORMAT
 62
     0
100
AcDbLine
 10
0.0
 20
5.0
 30
0.0
 11
0.0
 21
17.75
 31
0.0
  0
LINE
  5
12B
330
123
100
AcDbEntity
  8
FORMAT
 62
     0
100
AcDbLine
 10
-5.0
 20
0.0
 30
0.0
 11
-17.75
 21
0.0
 31
0.0
  0
LINE
  5
12C
330
123
100
AcDbEntity
  8
FORMAT
 62
     0
100
AcDbLine
 10
0.0
 20
-5.0
 30
0.0
 11
0.0
 21
-17.75
 31
0.0
  0
LINE
  5
12D
330
123
100
AcDbEntity
  8
FORMAT
 62
     0
100
AcDbLine
 10
5.0
 20
0.0
 30
0.0
 11
17.75
 21
0.0
 31
0.0
  0
ENDBLK
  5
125
330
123
100
AcDbEntity
  8
0
100
AcDbBlockEnd
  0
BLOCK
  5
130
330
12F
100
AcDbEntity
  8
0
100
AcDbBlockBegin
  2
SW_CENTERMARKSYMBOL_12
 70
     0
 10
0.0
 20
0.0
 30
0.0
  3
SW_CENTERMARKSYMBOL_12
  1

  0
LINE
  5
132
330
12F
100
AcDbEntity
  8
FORMAT
 62
     0
100
AcDbLine
 10
0.0
 20
0.0
 30
0.0
 11
0.0
 21
2.5
 31
0.0
  0
LINE
  5
133
330
12F
100
AcDbEntity
  8
FORMAT
 62
     0
100
AcDbLine
 10
0.0
 20
0.0
 30
0.0
 11
-2.5
 21
0.0
 31
0.0
  0
LINE
  5
134
330
12F
100
AcDbEntity
  8
FORMAT
 62
     0
100
AcDbLine
 10
0.0
 20
0.0
 30
0.0
 11
0.0
 21
-2.5
 31
0.0
  0
LINE
  5
135
330
12F
100
AcDbEntity
  8
FORMAT
 62
     0
100
AcDbLine
 10
0.0
 20
0.0
 30
0.0
 11
2.5
 21
0.0
 31
0.0
  0
LINE
  5
136
330
12F
100
AcDbEntity
  8
FORMAT
 62
     0
100
AcDbLine
 10
0.0
 20
5.0
 30
0.0
 11
0.0
 21
17.75
 31
0.0
  0
LINE
  5
137
330
12F
100
AcDbEntity
  8
FORMAT
 62
     0
100
AcDbLine
 10
-5.0
 20
0.0
 30
0.0
 11
-17.75
 21
0.0
 31
0.0
  0
LINE
  5
138
330
12F
100
AcDbEntity
  8
FORMAT
 62
     0
100
AcDbLine
 10
0.0
 20
-5.0
 30
0.0
 11
0.0
 21
-17.75
 31
0.0
  0
LINE
  5
139
330
12F
100
AcDbEntity
  8
FORMAT
 62
     0
100
AcDbLine
 10
5.0
 20
0.0
 30
0.0
 11
17.75
 21
0.0
 31
0.0
  0
ENDBLK
  5
131
330
12F
100
AcDbEntity
  8
0
100
AcDbBlockEnd
  0
ENDSEC
  0
SECTION
  2
ENTITIES
  0
CIRCLE
  5
83
330
1F
100
AcDbEntity
  8
0
  6
Continuous
 62
     7
370
    25
100
AcDbCircle
 10
-71.0900548207
 20
234.7409958732
 30
0.0
 40
15.25000000000001
  0
CIRCLE
  5
84
330
1F
100
AcDbEntity
  8
0
  6
Continuous
 62
     7
370
    25
100
AcDbCircle
 10
-71.0900548207
 20
-3.3590041268
 30
0.0
 40
15.25000000000001
  0
CIRCLE
  5
85
330
1F
100
AcDbEntity
  8
0
  6
Continuous
 62
     7
370
    25
100
AcDbCircle
 10
135.1105938204
 20
-122.4090041268
 30
0.0
 40
15.25
  0
CIRCLE
  5
86
330
1F
100
AcDbEntity
  8
0
  6
Continuous
 62
     7
370
    25
100
AcDbCircle
 10
373.2105938204
 20
115.6909958732
 30
0.0
 40
15.25000000000006
  0
CIRCLE
  5
87
330
1F
100
AcDbEntity
  8
0
  6
Continuous
 62
     7
370
    25
100
AcDbCircle
 10
254.1605938204
 20
321.8916445143
 30
0.0
 40
15.25
  0
CIRCLE
  5
88
330
1F
100
AcDbEntity
  8
0
  6
Continuous
 62
     7
370
    25
100
AcDbCircle
 10
135.1105938204
 20
353.7909958732
 30
0.0
 40
15.25
  0
CIRCLE
  5
89
330
1F
100
AcDbEntity
  8
0
  6
Continuous
 62
     7
370
    25
100
AcDbCircle
 10
135.1105938204
 20
115.6909958732
 30
0.0
 40
265.5
  0
CIRCLE
  5
8A
330
1F
100
AcDbEntity
  8
0
  6
Continuous
 62
     7
370
    25
100
AcDbCircle
 10
135.1105938204
 20
115.6909958732
 30
0.0
 40
189.0
  0
CIRCLE
  5
8B
330
1F
100
AcDbEntity
  8
0
  6
Continuous
 62
     7
370
    25
100
AcDbCircle
 10
341.3112424615
 20
-3.3590041268
 30
0.0
 40
15.25
  0
CIRCLE
  5
8C
330
1F
100
AcDbEntity
  8
0
  6
Continuous
 62
     7
370
    25
100
AcDbCircle
 10
341.3112424615
 20
234.7409958732
 30
0.0
 40
15.25
  0
CIRCLE
  5
8D
330
1F
100
AcDbEntity
  8
0
  6
Continuous
 62
     7
370
    25
100
AcDbCircle
 10
254.1605938204
 20
-90.5096527679
 30
0.0
 40
15.25000000000006
  0
CIRCLE
  5
8E
330
1F
100
AcDbEntity
  8
0
  6
Continuous
 62
     7
370
    25
100
AcDbCircle
 10
16.0605938204
 20
-90.5096527679
 30
0.0
 40
15.25
  0
CIRCLE
  5
8F
330
1F
100
AcDbEntity
  8
0
  6
Continuous
 62
     7
370
    25
100
AcDbCircle
 10
-102.9894061796
 20
115.6909958732
 30
0.0
 40
15.25000000000001
  0
CIRCLE
  5
90
330
1F
100
AcDbEntity
  8
0
  6
Continuous
 62
     7
370
    25
100
AcDbCircle
 10
16.0605938204
 20
321.8916445143
 30
0.0
 40
15.25
  0
CIRCLE
  5
91
330
1F
100
AcDbEntity
  8
0
  6
Continuous
 62
     7
370
    25
100
AcDbCircle
 10
341.3112424615
 20
234.7409958732
 30
0.0
 40
14.25
  0
CIRCLE
  5
92
330
1F
100
AcDbEntity
  8
0
  6
Continuous
 62
     7
370
    25
100
AcDbCircle
 10
341.3112424615
 20
-3.3590041268
 30
0.0
 40
14.25
  0
CIRCLE
  5
93
330
1F
100
AcDbEntity
  8
0
  6
Continuous
 62
     7
370
    25
100
AcDbCircle
 10
135.1105938204
 20
115.6909958732
 30
0.0
 40
188.0
  0
CIRCLE
  5
94
330
1F
100
AcDbEntity
  8
0
  6
Continuous
 62
     7
370
    25
100
AcDbCircle
 10
135.1105938204
 20
115.6909958732
 30
0.0
 40
266.5
  0
CIRCLE
  5
95
330
1F
100
AcDbEntity
  8
0
  6
Continuous
 62
     7
370
    25
100
AcDbCircle
 10
135.1105938204
 20
353.7909958732
 30
0.0
 40
14.25
  0
CIRCLE
  5
96
330
1F
100
AcDbEntity
  8
0
  6
Continuous
 62
     7
370
    25
100
AcDbCircle
 10
254.1605938204
 20
321.8916445143
 30
0.0
 40
14.25
  0
CIRCLE
  5
97
330
1F
100
AcDbEntity
  8
0
  6
Continuous
 62
     7
370
    25
100
AcDbCircle
 10
373.2105938204
 20
115.6909958732
 30
0.0
 40
14.25000000000006
  0
CIRCLE
  5
98
330
1F
100
AcDbEntity
  8
0
  6
Continuous
 62
     7
370
    25
100
AcDbCircle
 10
16.0605938204
 20
321.8916445143
 30
0.0
 40
14.25
  0
CIRCLE
  5
99
330
1F
100
AcDbEntity
  8
0
  6
Continuous
 62
     7
370
    25
100
AcDbCircle
 10
-102.9894061796
 20
115.6909958732
 30
0.0
 40
14.25000000000001
  0
CIRCLE
  5
9A
330
1F
100
AcDbEntity
  8
0
  6
Continuous
 62
     7
370
    25
100
AcDbCircle
 10
16.0605938204
 20
-90.5096527679
 30
0.0
 40
14.25
  0
CIRCLE
  5
9B
330
1F
100
AcDbEntity
  8
0
  6
Continuous
 62
     7
370
    25
100
AcDbCircle
 10
254.1605938204
 20
-90.5096527679
 30
0.0
 40
14.25000000000006
  0
CIRCLE
  5
9C
330
1F
100
AcDbEntity
  8
0
  6
Continuous
 62
     7
370
    25
100
AcDbCircle
 10
135.1105938204
 20
-122.4090041268
 30
0.0
 40
14.25
  0
CIRCLE
  5
9D
330
1F
100
AcDbEntity
  8
0
  6
Continuous
 62
     7
370
    25
100
AcDbCircle
 10
-71.0900548207
 20
-3.3590041268
 30
0.0
 40
14.25000000000001
  0
CIRCLE
  5
9E
330
1F
100
AcDbEntity
  8
0
  6
Continuous
 62
     7
370
    25
100
AcDbCircle
 10
-71.0900548207
 20
234.7409958732
 30
0.0
 40
14.25000000000001
  0
INSERT
  5
AA
330
1F
100
AcDbEntity
  8
FORMAT
 62
     7
100
AcDbBlockReference
  2
SW_CENTERMARKSYMBOL_0
 10
135.1105938204
 20
115.6909958732
 30
0.0
  0
INSERT
  5
B6
330
1F
100
AcDbEntity
  8
FORMAT
 62
     7
100
AcDbBlockReference
  2
SW_CENTERMARKSYMBOL_1
 10
135.1105938204
 20
353.7909958732
 30
0.0
  0
INSERT
  5
C2
330
1F
100
AcDbEntity
  8
FORMAT
 62
     7
100
AcDbBlockReference
  2
SW_CENTERMARKSYMBOL_2
 10
254.1605938204
 20
321.8916445143
 30
0.0
  0
INSERT
  5
CE
330
1F
100
AcDbEntity
  8
FORMAT
 62
     7
100
AcDbBlockReference
  2
SW_CENTERMARKSYMBOL_3
 10
341.3112424615
 20
234.7409958732
 30
0.0
  0
INSERT
  5
DA
330
1F
100
AcDbEntity
  8
FORMAT
 62
     7
100
AcDbBlockReference
  2
SW_CENTERMARKSYMBOL_4
 10
373.2105938204
 20
115.6909958732
 30
0.0
  0
INSERT
  5
E6
330
1F
100
AcDbEntity
  8
FORMAT
 62
     7
100
AcDbBlockReference
  2
SW_CENTERMARKSYMBOL_5
 10
16.0605938204
 20
321.8916445143
 30
0.0
  0
INSERT
  5
F2
330
1F
100
AcDbEntity
  8
FORMAT
 62
     7
100
AcDbBlockReference
  2
SW_CENTERMARKSYMBOL_6
 10
-71.0900548207
 20
234.7409958732
 30
0.0
  0
INSERT
  5
FE
330
1F
100
AcDbEntity
  8
FORMAT
 62
     7
100
AcDbBlockReference
  2
SW_CENTERMARKSYMBOL_7
 10
-102.9894061796
 20
115.6909958732
 30
0.0
  0
INSERT
  5
10A
330
1F
100
AcDbEntity
  8
FORMAT
 62
     7
100
AcDbBlockReference
  2
SW_CENTERMARKSYMBOL_8
 10
-71.0900548207
 20
-3.3590041268
 30
0.0
  0
INSERT
  5
116
330
1F
100
AcDbEntity
  8
FORMAT
 62
     7
100
AcDbBlockReference
  2
SW_CENTERMARKSYMBOL_9
 10
16.0605938204
 20
-90.5096527679
 30
0.0
  0
INSERT
  5
122
330
1F
100
AcDbEntity
  8
FORMAT
 62
     7
100
AcDbBlockReference
  2
SW_CENTERMARKSYMBOL_10
 10
135.1105938204
 20
-122.4090041268
 30
0.0
  0
INSERT
  5
12E
330
1F
100
AcDbEntity
  8
FORMAT
 62
     7
100
AcDbBlockReference
  2
SW_CENTERMARKSYMBOL_11
 10
254.1605938204
 20
-90.5096527679
 30
0.0
  0
INSERT
  5
13A
330
1F
100
AcDbEntity
  8
FORMAT
 62
     7
100
AcDbBlockReference
  2
SW_CENTERMARKSYMBOL_12
 10
341.3112424615
 20
-3.3590041268
 30
0.0
  0
LINE
  5
13B
330
1F
100
AcDbEntity
  8
0
  6
Continuous
 62
     7
370
    25
100
AcDbLine
 10
-459.6009383533
 20
382.1909958732
 30
0.0
 11
-499.6009383533
 21
382.1909958732
 31
0.0
  0
LINE
  5
13C
330
1F
100
AcDbEntity
  8
0
  6
Continuous
 62
     7
370
    25
100
AcDbLine
 10
-499.6009383533
 20
-150.8090041268
 30
0.0
 11
-459.6009383533
 21
-150.8090041268
 31
0.0
  0
ARC
  5
13D
330
1F
100
AcDbEntity
  8
0
  6
Continuous
 62
     7
370
    25
100
AcDbCircle
 10
-459.6009383533
 20
-149.8090041268
 30
0.0
 40
1.0
100
AcDbArc
 50
270.0
 51
0.0
  0
ARC
  5
13E
330
1F
100
AcDbEntity
  8
0
  6
Continuous
 62
     7
370
    25
100
AcDbCircle
 10
-459.6009383533
 20
381.1909958732
 30
0.0
 40
1.0
100
AcDbArc
 50
0.0
 51
90.0
  0
ARC
  5
13F
330
1F
100
AcDbEntity
  8
0
  6
Continuous
 62
     7
370
    25
100
AcDbCircle
 10
-499.6009383533
 20
-149.8090041268
 30
0.0
 40
1.0
100
AcDbArc
 50
180.0
 51
270.0
  0
ARC
  5
140
330
1F
100
AcDbEntity
  8
0
  6
Continuous
 62
     7
370
    25
100
AcDbCircle
 10
-499.6009383533
 20
381.1909958732
 30
0.0
 40
1.0
100
AcDbArc
 50
90.0
 51
180.0
  0
LINE
  5
141
330
1F
100
AcDbEntity
  8
0
  6
Continuous
 62
     7
370
    25
100
AcDbLine
 10
-458.6009383533
 20
115.6909958732
 30
0.0
 11
-458.6009383533
 21
-149.8090041268
 31
0.0
  0
LINE
  5
142
330
1F
100
AcDbEntity
  8
0
  6
Continuous
 62
     7
370
    25
100
AcDbLine
 10
-458.6009383533
 20
381.1909958732
 30
0.0
 11
-458.6009383533
 21
115.6909958732
 31
0.0
  0
LINE
  5
143
330
1F
100
AcDbEntity
  8
0
  6
Continuous
 62
     7
370
    25
100
AcDbLine
 10
-500.6009383533
 20
115.6909958732
 30
0.0
 11
-500.6009383533
 21
381.1909958732
 31
0.0
  0
LINE
  5
144
330
1F
100
AcDbEntity
  8
0
  6
Continuous
 62
     7
370
    25
100
AcDbLine
 10
-500.6009383533
 20
-149.8090041268
 30
0.0
 11
-500.6009383533
 21
115.6909958732
 31
0.0
  0
LINE
  5
145
330
1F
100
AcDbEntity
  8
0
  6
Continuous
 62
     1
370
    25
100
AcDbLine
 10
-499.6009383533
 20
115.6909958732
 30
0.0
 11
-499.6009383533
 21
-150.8090041268
 31
0.0
  0
LINE
  5
146
330
1F
100
AcDbEntity
  8
0
  6
Continuous
 62
     1
370
    25
100
AcDbLine
 10
-499.6009383533
 20
382.1909958732
 30
0.0
 11
-499.6009383533
 21
115.6909958732
 31
0.0
  0
LINE
  5
147
330
1F
100
AcDbEntity
  8
0
  6
Continuous
 62
     1
370
    25
100
AcDbLine
 10
-459.6009383533
 20
115.6909958732
 30
0.0
 11
-459.6009383533
 21
382.1909958732
 31
0.0
  0
LINE
  5
148
330
1F
100
AcDbEntity
  8
0
  6
Continuous
 62
     1
370
    25
100
AcDbLine
 10
-459.6009383533
 20
-150.8090041268
 30
0.0
 11
-459.6009383533
 21
115.6909958732
 31
0.0
  0
LINE
  5
149
330
1F
100
AcDbEntity
  8
0
  6
Continuous
 62
     7
370
    25
100
AcDbLine
 10
660.1317362616
 20
-150.8090041268
 30
0.0
 11
700.1317362616
 21
-150.8090041268
 31
0.0
  0
LINE
  5
14A
330
1F
100
AcDbEntity
  8
0
  6
Continuous
 62
     7
370
    25
100
AcDbLine
 10
700.1317362616
 20
382.1909958732
 30
0.0
 11
660.1317362616
 21
382.1909958732
 31
0.0
  0
ARC
  5
14B
330
1F
100
AcDbEntity
  8
0
  6
Continuous
 62
     7
370
    25
100
AcDbCircle
 10
660.1317362616
 20
381.1909958732
 30
0.0
 40
1.0
100
AcDbArc
 50
90.0
 51
180.0
  0
ARC
  5
14C
330
1F
100
AcDbEntity
  8
0
  6
Continuous
 62
     7
370
    25
100
AcDbCircle
 10
660.1317362616
 20
-149.8090041268
 30
0.0
 40
1.0
100
AcDbArc
 50
180.0
 51
270.0
  0
ARC
  5
14D
330
1F
100
AcDbEntity
  8
0
  6
Continuous
 62
     7
370
    25
100
AcDbCircle
 10
700.1317362616
 20
381.1909958732
 30
0.0
 40
1.0
100
AcDbArc
 50
0.0
 51
90.0
  0
ARC
  5
14E
330
1F
100
AcDbEntity
  8
0
  6
Continuous
 62
     7
370
    25
100
AcDbCircle
 10
700.1317362616
 20
-149.8090041268
 30
0.0
 40
1.0
100
AcDbArc
 50
270.0
 51
0.0
  0
LINE
  5
14F
330
1F
100
AcDbEntity
  8
0
  6
Continuous
 62
     7
370
    25
100
AcDbLine
 10
659.1317362616
 20
-149.8090041268
 30
0.0
 11
659.1317362616
 21
381.1909958732
 31
0.0
  0
LINE
  5
150
330
1F
100
AcDbEntity
  8
0
  6
Continuous
 62
     7
370
    25
100
AcDbLine
 10
701.1317362616
 20
381.1909958732
 30
0.0
 11
701.1317362616
 21
-149.8090041268
 31
0.0
  0
LINE
  5
151
330
1F
100
AcDbEntity
  8
0
  6
Continuous
 62
     1
370
    25
100
AcDbLine
 10
700.1317362616
 20
-150.8090041268
 30
0.0
 11
700.1317362616
 21
382.1909958732
 31
0.0
  0
LINE
  5
152
330
1F
100
AcDbEntity
  8
0
  6
Continuous
 62
     1
370
    25
100
AcDbLine
 10
660.1317362616
 20
382.1909958732
 30
0.0
 11
660.1317362616
 21
-150.8090041268
 31
0.0
  0
LINE
  5
153
330
1F
100
AcDbEntity
  8
0
  6
Continuous
 62
     7
370
    25
100
AcDbLine
 10
401.6105938204
 20
566.2217906763
 30
0.0
 11
401.6105938204
 21
606.2217906763
 31
0.0
  0
LINE
  5
154
330
1F
100
AcDbEntity
  8
0
  6
Continuous
 62
     7
370
    25
100
AcDbLine
 10
-131.3894061796
 20
606.2217906763
 30
0.0
 11
-131.3894061796
 21
566.2217906763
 31
0.0
  0
ARC
  5
155
330
1F
100
AcDbEntity
  8
0
  6
Continuous
 62
     7
370
    25
100
AcDbCircle
 10
-130.3894061796
 20
566.2217906763
 30
0.0
 40
1.0
100
AcDbArc
 50
180.0
 51
270.0
  0
ARC
  5
156
330
1F
100
AcDbEntity
  8
0
  6
Continuous
 62
     7
370
    25
100
AcDbCircle
 10
400.6105938204
 20
566.2217906763
 30
0.0
 40
1.0
100
AcDbArc
 50
270.0
 51
0.0
  0
ARC
  5
157
330
1F
100
AcDbEntity
  8
0
  6
Continuous
 62
     7
370
    25
100
AcDbCircle
 10
-130.3894061796
 20
606.2217906763
 30
0.0
 40
1.0
100
AcDbArc
 50
90.0
 51
180.0
  0
ARC
  5
158
330
1F
100
AcDbEntity
  8
0
  6
Continuous
 62
     7
370
    25
100
AcDbCircle
 10
400.6105938204
 20
606.2217906763
 30
0.0
 40
1.0
100
AcDbArc
 50
0.0
 51
90.0
  0
LINE
  5
159
330
1F
100
AcDbEntity
  8
0
  6
Continuous
 62
     7
370
    25
100
AcDbLine
 10
400.6105938204
 20
565.2217906763
 30
0.0
 11
-130.3894061784
 21
565.2217906763
 31
0.0
  0
LINE
  5
15A
330
1F
100
AcDbEntity
  8
0
  6
Continuous
 62
     7
370
    25
100
AcDbLine
 10
-130.3894061784
 20
607.2217906763
 30
0.0
 11
400.6105938204
 21
607.2217906763
 31
0.0
  0
LINE
  5
15B
330
1F
100
AcDbEntity
  8
0
  6
Continuous
 62
     1
370
    25
100
AcDbLine
 10
401.6105938204
 20
606.2217906763
 30
0.0
 11
-131.3894061796
 21
606.2217906763
 31
0.0
  0
LINE
  5
15C
330
1F
100
AcDbEntity
  8
0
  6
Continuous
 62
     1
370
    25
100
AcDbLine
 10
-131.3894061796
 20
566.2217906763
 30
0.0
 11
401.6105938204
 21
566.2217906763
 31
0.0
  0
LINE
  5
15D
330
1F
100
AcDbEntity
  8
0
  6
Continuous
 62
     7
370
    25
100
AcDbLine
 10
-131.3894061796
 20
-542.267880285
 30
0.0
 11
-131.3894061796
 21
-582.267880285
 31
0.0
  0
LINE
  5
15E
330
1F
100
AcDbEntity
  8
0
  6
Continuous
 62
     7
370
    25
100
AcDbLine
 10
401.6105938204
 20
-582.267880285
 30
0.0
 11
401.6105938204
 21
-542.267880285
 31
0.0
  0
ARC
  5
15F
330
1F
100
AcDbEntity
  8
0
  6
Continuous
 62
     7
370
    25
100
AcDbCircle
 10
400.6105938204
 20
-542.267880285
 30
0.0
 40
1.0
100
AcDbArc
 50
0.0
 51
90.0
  0
ARC
  5
160
330
1F
100
AcDbEntity
  8
0
  6
Continuous
 62
     7
370
    25
100
AcDbCircle
 10
-130.3894061796
 20
-542.267880285
 30
0.0
 40
1.0
100
AcDbArc
 50
90.0
 51
180.0
  0
ARC
  5
161
330
1F
100
AcDbEntity
  8
0
  6
Continuous
 62
     7
370
    25
100
AcDbCircle
 10
400.6105938204
 20
-582.267880285
 30
0.0
 40
1.0
100
AcDbArc
 50
270.0
 51
0.0
  0
ARC
  5
162
330
1F
100
AcDbEntity
  8
0
  6
Continuous
 62
     7
370
    25
100
AcDbCircle
 10
-130.3894061796
 20
-582.267880285
 30
0.0
 40
1.0
100
AcDbArc
 50
180.0
 51
270.0
  0
LINE
  5
163
330
1F
100
AcDbEntity
  8
0
  6
Continuous
 62
     7
370
    25
100
AcDbLine
 10
-130.3894061784
 20
-541.267880285
 30
0.0
 11
400.6105938204
 21
-541.267880285
 31
0.0
  0
LINE
  5
164
330
1F
100
AcDbEntity
  8
0
  6
Continuous
 62
     7
370
    25
100
AcDbLine
 10
400.6105938204
 20
-583.267880285
 30
0.0
 11
-130.3894061784
 21
-583.267880285
 31
0.0
  0
LINE
  5
165
330
1F
100
AcDbEntity
  8
0
  6
Continuous
 62
     1
370
    25
100
AcDbLine
 10
-131.3894061796
 20
-582.267880285
 30
0.0
 11
401.6105938204
 21
-582.267880285
 31
0.0
  0
LINE
  5
166
330
1F
100
AcDbEntity
  8
0
  6
Continuous
 62
     1
370
    25
100
AcDbLine
 10
401.6105938204
 20
-542.267880285
 30
0.0
 11
-131.3894061796
 21
-542.267880285
 31
0.0
  0
SPLINE
  5
167
330
1F
100
AcDbEntity
  8
0
  6
Continuous
 62
     7
370
    25
100
AcDbSpline
210
0.0
220
0.0
230
1.0
 70
     8
 71
     3
 72
    83
 73
    79
 74
     0
 42
0.00000001
 43
0.00000001
 40
0.0
 40
0.0
 40
0.0
 40
0.0
 40
0.0123350662080182
 40
0.0255308953774822
 40
0.038731309459149
 40
0.0519359808389324
 40
0.0651444916580571
 40
0.0783563722127318
 40
0.0915711336611088
 40
0.1047882938337967
 40
0.1180073960332318
 40
0.131228021441439
 40
0.144449796158208
 40
0.1576723940327503
 40
0.1708955364151143
 40
0.1841189898142184
 40
0.1973425553318967
 40
0.2105660409900292
 40
0.2237893347183756
 40
0.2370123512297975
 40
0.2502350279453339
 40
0.2634573213200797
 40
0.2766792036000361
 40
0.2899006600089877
 40
0.3031216863430256
 40
0.3163422869381603
 40
0.3295624729710108
 40
0.3427822610512316
 40
0.356001672065677
 40
0.3692207302373332
 40
0.3824394623655952
 40
0.3956578972184663
 40
0.4088760650510336
 40
0.4220939972281794
 40
0.4353117259326919
 40
0.4485292839427523
 40
0.4617467044651964
 40
0.4749640210129446
 40
0.4881812673166557
 40
0.5013984772619902
 40
0.5146156848448188
 40
0.527832917383952
 40
0.5410502044031439
 40
0.5542675800542609
 40
0.56748507848092
 40
0.5807027337697027
 40
0.5939205798820436
 40
0.6071386505585035
 40
0.6203569791863514
 40
0.6335755986200698
 40
0.646794540942573
 40
0.6600138371527388
 40
0.6732335167624122
 40
0.6864536072829215
 40
0.6996741335778462
 40
0.7128951170549899
 40
0.7261165746664895
 40
0.7393385176819303
 40
0.7525609501956174
 40
0.7657838673261701
 40
0.7790072530654399
 40
0.7922310777354605
 40
0.805455295018431
 40
0.8186798385382908
 40
0.8319046179958184
 40
0.8451295121993212
 40
0.8583543145079153
 40
0.8715788228098519
 40
0.8848027915584051
 40
0.8980259280964643
 40
0.911247890397514
 40
0.9244682870692895
 40
0.9376866806572733
 40
0.9509025954184043
 40
0.9641155307536271
 40
0.9773249813102272
 40
0.9905304643055012
 40
1.0
 40
1.0
 40
1.0
 40
1.0
 10
826.2082332630928
 20
-272.3984028965312
 30
0.0
 10
824.4376354324778
 20
-272.2746899340929
 30
0.0
 10
820.7728842907577
 20
-272.0186310976354
 30
0.0
 10
815.0840537682358
 20
-271.9895122781069
 30
0.0
 10
809.1809938816765
 20
-272.2245315133605
 30
0.0
 10
803.1849269863551
 20
-272.7549138900987
 30
0.0
 10
797.1061552168533
 20
-273.5718386242099
 30
0.0
 10
790.9511595571182
 20
-274.6765802112823
 30
0.0
 10
784.7275703401399
 20
-276.0672403843702
 30
0.0
 10
778.4428133033686
 20
-277.7423095505696
 30
0.0
 10
772.1044531601352
 20
-279.6997192259871
 30
0.0
 10
765.7200844764519
 20
-281.9371045988793
 30
0.0
 10
759.2973460811038
 20
-284.4517434646782
 30
0.0
 10
752.8439042390075
 20
-287.2405820917951
 30
0.0
 10
746.3674456663349
 20
-290.3002376394037
 30
0.0
 10
739.8756701044615
 20
-293.6270059537759
 30
0.0
 10
733.376287847135
 20
-297.2168649809191
 30
0.0
 10
726.8770046390292
 20
-301.0654846149841
 30
0.0
 10
720.3855134578419
 20
-305.1682340446606
 30
0.0
 10
713.9094825322117
 20
-309.5201920095184
 30
0.0
 10
707.4565559668772
 20
-314.1161484614569
 30
0.0
 10
701.0343462220019
 20
-318.9506107271036
 30
0.0
 10
694.6504264260276
 20
-324.017809823929
 30
0.0
 10
688.3123225342742
 20
-329.3117069818096
 30
0.0
 10
682.0275053543187
 20
-334.8260004090792
 30
0.0
 10
675.8033824650471
 20
-340.5541323311614
 30
0.0
 10
669.6472900589916
 20
-346.489296320281
 30
0.0
 10
663.566484738298
 20
-352.6244449269096
 30
0.0
 10
657.5681352940641
 20
-358.9522976172291
 30
0.0
 10
651.6593144974186
 20
-365.4653490158686
 30
0.0
 10
645.8469909288885
 20
-372.1558774492874
 30
0.0
 10
640.1380208706515
 20
-379.0159537821681
 30
0.0
 10
634.5391402842738
 20
-386.0374505369463
 30
0.0
 10
629.0569568946547
 20
-393.2120512849002
 30
0.0
 10
623.6979423991515
 20
-400.5312602959783
 30
0.0
 10
618.4684248192817
 20
-407.9864124336079
 30
0.0
 10
613.3745810109991
 20
-415.5686832800365
 30
0.0
 10
608.4224293483067
 20
-423.2690994772189
 30
0.0
 10
603.6178225938671
 20
-431.0785492678933
 30
0.0
 10
598.9664409693928
 20
-438.9877932209964
 30
0.0
 10
594.4737862026832
 20
-446.9874737632741
 30
0.0
 10
590.145174643631
 20
-455.0681265881531
 30
0.0
 10
585.9857303982011
 20
-463.2201927627682
 30
0.0
 10
582.0003786581924
 20
-471.4340314784027
 30
0.0
 10
578.1938402845733
 20
-479.6999310720589
 30
0.0
 10
574.5706268054623
 20
-488.0081195771892
 30
0.0
 10
571.1350351809781
 20
-496.348776278149
 30
0.0
 10
567.8911428446505
 20
-504.7120433123133
 30
0.0
 10
564.8428030283562
 20
-513.0880373002759
 30
0.0
 10
561.9936403768419
 20
-521.4668609839143
 30
0.0
 10
559.3470468569344
 20
-529.8386148511934
 30
0.0
 10
556.9061779653334
 20
-538.1934087256086
 30
0.0
 10
554.6739492374185
 20
-546.5213732970517
 30
0.0
 10
552.653033057663
 20
-554.812671569721
 30
0.0
 10
550.8458557699571
 20
-563.0575102014733
 30
0.0
 10
549.2545950832745
 20
-571.2461507078468
 30
0.0
 10
547.8811777645599
 20
-579.3689205029399
 30
0.0
 10
546.7272776063238
 20
-587.4162237486261
 30
0.0
 10
545.7943136510713
 20
-595.3785519834274
 30
0.0
 10
545.0834486482896
 20
-603.2464945031012
 30
0.0
 10
544.5955877120773
 20
-611.0107484672153
 30
0.0
 10
544.3313771391402
 20
-618.6621287097794
 30
0.0
 10
544.2912033362747
 20
-626.1915772401792
 30
0.0
 10
544.4751918005561
 20
-633.5901724267269
 30
0.0
 10
544.8832060433524
 20
-640.8491373942873
 30
0.0
 10
545.5148455587338
 20
-647.9598392210485
 30
0.0
 10
546.3694436029996
 20
-654.9138060355198
 30
0.0
 10
547.4460656761833
 20
-661.7027355369518
 30
0.0
 10
548.7435080249005
 20
-668.3185137322213
 30
0.0
 10
550.2602999611881
 20
-674.7532096076333
 30
0.0
 10
551.9946817216473
 20
-680.9991084331537
 30
0.0
 10
553.9446752247923
 20
-687.0486329092403
 30
0.0
 10
556.1078080557194
 20
-692.8946870327961
 30
0.0
 10
558.482132598309
 20
-698.5294282386955
 30
0.0
 10
561.0624163541472
 20
-703.9489102036065
 30
0.0
 10
563.8543536443123
 20
-709.135830576556
 30
0.0
 10
566.5420668531673
 20
-713.6541187438328
 30
0.0
 10
568.385705819662
 20
-716.3358384029534
 30
0.0
 10
569.155645868658
 20
-717.4557775034289
 30
0.0
  0
LINE
  5
168
330
1F
100
AcDbEntity
  8
0
  6
Continuous
 62
     7
370
    25
100
AcDbLine
 10
894.5773220435
 20
-300.916447239
 30
0.0
 11
866.2930507961
 21
-284.5882850026
 31
0.0
  0
LINE
  5
169
330
1F
100
AcDbEntity
  8
0
  6
Continuous
 62
     7
370
    25
100
AcDbLine
 10
599.8147085485
 20
-746.1923286515
 30
0.0
 11
628.098979796
 21
-762.5204908879
 31
0.0
  0
SPLINE
  5
16A
330
1F
100
AcDbEntity
  8
0
  6
Continuous
 62
     7
370
    25
100
AcDbSpline
210
0.0
220
0.0
230
1.0
 70
     8
 71
     3
 72
    68
 73
    64
 74
     0
 42
0.00000001
 43
0.00000001
 40
0.0
 40
0.0
 40
0.0
 40
0.0
 40
0.0116655380866244
 40
0.0281399035027544
 40
0.0446200587917631
 40
0.0611056244430732
 40
0.0775960977975134
 40
0.0940909021131749
 40
0.1105894290371646
 40
0.1270910726507232
 40
0.1435952547005731
 40
0.1601014416375069
 40
0.1766091546649669
 40
0.1931179742352072
 40
0.2096275404217823
 40
0.2261375504428984
 40
0.2426477543880938
 40
0.2591578964114618
 40
0.275667824654576
 40
0.2921774261904316
 40
0.3086866174511606
 40
0.3251953395332463
 40
0.3417035540366589
 40
0.3582112394438219
 40
0.3747183880148089
 40
0.3912250031580387
 40
0.4077310972273708
 40
0.4242366896939682
 40
0.4407418056425381
 40
0.4572464745447775
 40
0.4737507292674826
 40
0.4902546052774557
 40
0.5067581400102779
 40
0.5232613723745573
 40
0.5397643423673101
 40
0.5562670907798195
 40
0.5727696589764154
 40
0.5892720887311597
 40
0.6057744221097
 40
0.6222767013851822
 40
0.6387789689784523
 40
0.6552812618950797
 40
0.6717836140720523
 40
0.6882860681455393
 40
0.7047886667518853
 40
0.7212914524703253
 40
0.737794467743809
 40
0.7542977547674127
 40
0.77080135533344
 40
0.7873053106205598
 40
0.8038096609122352
 40
0.8203144452271487
 40
0.8368197008411391
 40
0.8533254626766936
 40
0.8698317625317599
 40
0.8863386281151497
 40
0.9028460818507733
 40
0.9193541394078959
 40
0.93586280790977
 40
0.9523720837690918
 40
0.9688819500966034
 40
0.9853923736304824
 40
1.0
 40
1.0
 40
1.0
 40
1.0
 10
668.311879752024
 20
-774.6990990392597
 30
0.0
 10
669.6484748058981
 20
-774.8049523026611
 30
0.0
 10
672.8726429119026
 20
-775.0602941990612
 30
0.0
 10
678.1071426254208
 20
-775.1303714629822
 30
0.0
 10
683.9895561955673
 20
-774.9578496151419
 30
0.0
 10
689.9679039279431
 20
-774.4859697674676
 30
0.0
 10
696.0300538472841
 20
-773.7284524509233
 30
0.0
 10
702.1700440281435
 20
-772.6826134756603
 30
0.0
 10
708.3801288674042
 20
-771.3506334119191
 30
0.0
 10
714.6529331409764
 20
-769.7338517824701
 30
0.0
 10
720.9808944210181
 20
-767.8342898680173
 30
0.0
 10
727.3564300404414
 20
-765.654234188351
 30
0.0
 10
733.7719076085411
 20
-763.1963389319664
 30
0.0
 10
740.2196662312364
 20
-760.4635890089875
 30
0.0
 10
746.6920225865967
 20
-757.459300553331
 30
0.0
 10
753.1812799154599
 20
-754.187111688416
 30
0.0
 10
759.6797284415229
 20
-750.6509800955545
 30
0.0
 10
766.1796609042187
 20
-746.8551731086483
 30
0.0
 10
772.6733802257899
 20
-742.8042608887584
 30
0.0
 10
779.1532135599438
 20
-738.5031049264726
 30
0.0
 10
785.6115112354364
 20
-733.9568564167234
 30
0.0
 10
792.0406536661895
 20
-729.1709504567658
 30
0.0
 10
798.4330590048238
 20
-724.1510997664102
 30
0.0
 10
804.7811909538195
 20
-718.9032882122324
 30
0.0
 10
811.0775667148172
 20
-713.4337640944124
 30
0.0
 10
817.3147650500753
 20
-707.7490331659213
 30
0.0
 10
823.485434426842
 20
-701.8558513637388
 30
0.0
 10
829.582301214323
 20
-695.7612172399548
 30
0.0
 10
835.5981779032917
 20
-689.4723640872909
 30
0.0
 10
841.525971319657
 20
-682.9967517588334
 30
0.0
 10
847.3586908050355
 20
-676.3420581859085
 30
0.0
 10
853.0894563393354
 20
-669.516170601163
 30
0.0
 10
858.7115065823381
 20
-662.5271764763314
 30
0.0
 10
864.2182068131857
 20
-655.3833541859472
 30
0.0
 10
869.6030567484527
 20
-648.0931634095938
 30
0.0
 10
874.8596982210967
 20
-640.665235286285
 30
0.0
 10
879.9819227040158
 20
-633.1083623352977
 30
0.0
 10
884.9636786632105
 20
-625.431488158337
 30
0.0
 10
889.7990787266716
 20
-617.6436969383368
 30
0.0
 10
894.4824066560542
 20
-609.7542027506098
 30
0.0
 10
899.0081236046982
 20
-601.7723395919027
 30
0.0
 10
903.3708744829632
 20
-593.7075509263367
 30
0.0
 10
907.5654951731065
 20
-585.5693771613985
 30
0.0
 10
911.5870190370879
 20
-577.3674434078115
 30
0.0
 10
915.4306828644783
 20
-569.1114475091969
 30
0.0
 10
919.0919316682157
 20
-560.8111499797529
 30
0.0
 10
922.5664239755571
 20
-552.4763624620542
 30
0.0
 10
925.8500368444218
 20
-544.1169361329523
 30
0.0
 10
928.9388705961126
 20
-535.7427500781798
 30
0.0
 10
931.8292532649936
 20
-527.3636996517785
 30
0.0
 10
934.5177447344056
 20
-518.9896848558726
 30
0.0
 10
937.0011406494663
 20
-510.6305987082289
 30
0.0
 10
939.2764757501282
 20
-502.2963158238266
 30
0.0
 10
941.3410279442146
 20
-493.9966804759895
 30
0.0
 10
943.1923181923703
 20
-485.7414969936642
 30
0.0
 10
944.8281246059523
 20
-477.5405119545346
 30
0.0
 10
946.2464421027698
 20
-469.4034276396368
 30
0.0
 10
947.4456438973878
 20
-461.3397995853121
 30
0.0
 10
948.4238883961729
 20
-453.359367621149
 30
0.0
 10
949.1813412227452
 20
-445.4707700703943
 30
0.0
 10
949.7118893649456
 20
-437.6862935734617
 30
0.0
 10
950.0216920805864
 20
-430.2992960855811
 30
0.0
 10
950.057971034923
 20
-425.5634310913678
 30
0.0
 10
950.0750013247924
 20
-423.3402922190185
 30
0.0
  0
SPLINE
  5
16B
330
1F
100
AcDbEntity
  8
0
  6
Continuous
 62
     7
370
    25
100
AcDbSpline
210
0.0
220
0.0
230
1.0
 70
     8
 71
     3
 72
    23
 73
    19
 74
     0
 42
0.00000001
 43
0.00000001
 40
0.0
 40
0.0
 40
0.0
 40
0.0
 40
0.0350203617436403
 40
0.1015479202322111
 40
0.1680792952994396
 40
0.2346110508493318
 40
0.3011421519091034
 40
0.3676715385185174
 40
0.4341979280008324
 40
0.5007197976352141
 40
0.5672353752493952
 40
0.6337426421963878
 40
0.7002393541009797
 40
0.7667230853425031
 40
0.8331913031646029
 40
0.8996414761521275
 40
0.9660712191642845
 40
1.0
 40
1.0
 40
1.0
 40
1.0
 10
950.0750013247924
 20
-423.3402922190185
 30
0.0
 10
950.0687537256401
 20
-422.026958539615
 30
0.0
 10
950.0506376734705
 20
-418.2187082225385
 30
0.0
 10
949.8493642243454
 20
-412.0159741427656
 30
0.0
 10
949.3977529530902
 20
-404.7855419800674
 30
0.0
 10
948.7195839454497
 20
-397.7067264428035
 30
0.0
 10
947.8194416295388
 20
-390.7859113021332
 30
0.0
 10
946.6972820343908
 20
-384.0319382575628
 30
0.0
 10
945.3546417108037
 20
-377.4527283230919
 30
0.0
 10
943.7929717014674
 20
-371.0562159568174
 30
0.0
 10
942.01411370603
 20
-364.8500562060428
 30
0.0
 10
940.020076975166
 20
-358.841810534402
 30
0.0
 10
937.8134695993166
 20
-353.0384333942696
 30
0.0
 10
935.396010210211
 20
-347.4480696601308
 30
0.0
 10
932.7740573705544
 20
-342.073301963551
 30
0.0
 10
929.9379886119108
 20
-336.9362681363236
 30
0.0
 10
927.42785013467
 20
-332.791828321138
 30
0.0
 10
925.7888231828937
 20
-330.453431642951
 30
0.0
 10
925.2347079558208
 20
-329.6628764877015
 30
0.0
  0
SPLINE
  5
16C
330
1F
100
AcDbEntity
  8
0
  6
Continuous
 62
     7
370
    25
100
AcDbSpline
210
0.0
220
0.0
230
1.0
 70
     8
 71
     3
 72
    20
 73
    16
 74
     0
 42
0.00000001
 43
0.00000001
 40
0.0
 40
0.0
 40
0.0
 40
0.0
 40
0.0639072964692942
 40
0.1430016584856819
 40
0.2220501049509142
 40
0.3010575679182773
 40
0.3800298544935747
 40
0.4589730405601684
 40
0.5378930240909044
 40
0.6167952322246297
 40
0.6956844576531539
 40
0.7745647932027159
 40
0.8534396344288324
 40
0.9323117248041943
 40
1.0
 40
1.0
 40
1.0
 40
1.0
 10
848.2653924991232
 20
-372.4455898425813
 30
0.0
 10
848.9829688435357
 20
-373.4985132048694
 30
0.0
 10
850.5886478975752
 20
-375.85457887161
 30
0.0
 10
852.8495852916416
 20
-379.7973125184847
 30
0.0
 10
855.086164680279
 20
-384.2108114628851
 30
0.0
 10
857.1126999099298
 20
-388.8510580638407
 30
0.0
 10
858.9331497210495
 20
-393.701323311082
 30
0.0
 10
860.5426302115875
 20
-398.7560468054053
 30
0.0
 10
861.9389826748138
 20
-404.0062816868877
 30
0.0
 10
863.1198283317484
 20
-409.4435037543919
 30
0.0
 10
864.082828873499
 20
-415.0589071243841
 30
0.0
 10
864.8276457416912
 20
-420.8424294431652
 30
0.0
 10
865.3479100534377
 20
-426.7873970638739
 30
0.0
 10
865.6466277771289
 20
-432.5853672031756
 30
0.0
 10
865.6811276831706
 20
-436.4533356499555
 30
0.0
 10
865.6970613165597
 20
-438.239740259783
 30
0.0
  0
SPLINE
  5
16D
330
1F
100
AcDbEntity
  8
0
  6
Continuous
 62
     7
370
    25
100
AcDbSpline
210
0.0
220
0.0
230
1.0
 70
     8
 71
     3
 72
    60
 73
    56
 74
     0
 42
0.00000001
 43
0.00000001
 40
0.0
 40
0.0
 40
0.0
 40
0.0
 40
0.0101509366678402
 40
0.0294512519986533
 40
0.0487532906454766
 40
0.0680561119454464
 40
0.0873598553326952
 40
0.1066646042480878
 40
0.1259703976300093
 40
0.1452772395739941
 40
0.1645851072084045
 40
0.1838939570295436
 40
0.2032037299358034
 40
0.2225143551817649
 40
0.241825753447701
 40
0.261137839192688
 40
0.2804505224333547
 40
0.2997637100665756
 40
0.3190773068339377
 40
0.3383912160086132
 40
0.3577053398712603
 40
0.3770195800305144
 40
0.3963338376352732
 40
0.4156479862424582
 40
0.4349619207691152
 40
0.4542755418553092
 40
0.4735887503026939
 40
0.4929014473575584
 40
0.5122135351361112
 40
0.5315249172446066
 40
0.5508354996581895
 40
0.5701451919358156
 40
0.5894539088650423
 40
0.608761572650653
 40
0.6280681157842278
 40
0.6473734847582483
 40
0.6666776448162524
 40
0.6859805859581984
 40
0.7052823304430077
 40
0.724582942041307
 40
0.7438825372797563
 40
0.7631812988670057
 40
0.7824794913761712
 40
0.8017774718209857
 40
0.8210755568237703
 40
0.8403743210196587
 40
0.8596744911389322
 40
0.8789769624434269
 40
0.8982828084074755
 40
0.9175932784386007
 40
0.9369097770109853
 40
0.956233816593038
 40
0.9755669369100471
 40
0.994910585357459
 40
1.0
 40
1.0
 40
1.0
 40
1.0
 10
865.6970613165597
 20
-438.239740259783
 30
0.0
 10
865.6908739870294
 20
-439.3437619408712
 30
0.0
 10
865.672922480961
 20
-442.5468969623632
 30
0.0
 10
865.4733625198717
 20
-447.9455027625901
 30
0.0
 10
865.0254900689694
 20
-454.4643711464327
 30
0.0
 10
864.353127034948
 20
-461.088030781103
 30
0.0
 10
863.4611416915233
 20
-467.8029158724035
 30
0.0
 10
862.3499226712756
 20
-474.5983395468978
 30
0.0
 10
861.0215340673682
 20
-481.4626896259599
 30
0.0
 10
859.4780653236658
 20
-488.3844406223835
 30
0.0
 10
857.7220690656984
 20
-495.3519096999766
 30
0.0
 10
855.7564383475305
 20
-502.3533490291221
 30
0.0
 10
853.5844331531222
 20
-509.3769477953336
 30
0.0
 10
851.2096660267291
 20
-516.4108582126037
 30
0.0
 10
848.6360978517431
 20
-523.4432149002873
 30
0.0
 10
845.8680301625429
 20
-530.4621558363755
 30
0.0
 10
842.9100976825245
 20
-537.4558426861244
 30
0.0
 10
839.7672601346378
 20
-544.4124810922382
 30
0.0
 10
836.4447936096731
 20
-551.3203407621344
 30
0.0
 10
832.9482814411224
 20
-558.1677753852264
 30
0.0
 10
829.2836046224685
 20
-564.9432423570252
 30
0.0
 10
825.4569317776863
 20
-571.6353222985986
 30
0.0
 10
821.4747105747074
 20
-578.2327352503588
 30
0.0
 10
817.343655697904
 20
-584.7243624188368
 30
0.0
 10
813.0707371682005
 20
-591.0992657575359
 30
0.0
 10
808.6631664474451
 20
-597.3467094194865
 30
0.0
 10
804.1283857728125
 20
-603.45617549021
 30
0.0
 10
799.474056131619
 20
-609.4173812764703
 30
0.0
 10
794.7080444627649
 20
-615.220296913565
 30
0.0
 10
789.8384105009354
 20
-620.8551626293714
 30
0.0
 10
784.8733932668264
 20
-626.3125056477543
 30
0.0
 10
779.8213972026948
 20
-631.5831567138795
 30
0.0
 10
774.6909779475386
 20
-636.6582662232283
 30
0.0
 10
769.4908277400893
 20
-641.5293199342448
 30
0.0
 10
764.2297604304227
 20
-646.1881542410662
 30
0.0
 10
758.9166960724725
 20
-650.6269709769786
 30
0.0
 10
753.5606450603086
 20
-654.8383517100842
 30
0.0
 10
748.1706917611539
 20
-658.8152714794185
 30
0.0
 10
742.7559775894536
 20
-662.5511118995904
 30
0.0
 10
737.3256834583495
 20
-666.0396735389877
 30
0.0
 10
731.8890115493565
 20
-669.2751874286931
 30
0.0
 10
726.4551663292904
 20
-672.2523255622735
 30
0.0
 10
721.0333355212566
 20
-674.9662096756492
 30
0.0
 10
715.6326843333902
 20
-677.4124126605266
 30
0.0
 10
710.2623233139833
 20
-679.5869718457567
 30
0.0
 10
704.9312841978242
 20
-681.4863983125241
 30
0.0
 10
699.6484908577879
 20
-683.107665190215
 30
0.0
 10
694.4227228441741
 20
-684.4482634005575
 30
0.0
 10
689.262693473333
 20
-685.5059611114826
 30
0.0
 10
684.176663514638
 20
-686.2796725054108
 30
0.0
 10
679.1738015339932
 20
-686.7661685356206
 30
0.0
 10
674.2590426749997
 20
-686.972298967904
 30
0.0
 10
669.4522539651042
 20
-686.8692830944012
 30
0.0
 10
665.8808022247146
 20
-686.6385628861188
 30
0.0
 10
663.952873273948
 20
-686.3506512018697
 30
0.0
 10
663.5512850737422
 20
-686.2906791084739
 30
0.0
  0
SPLINE
  5
16E
330
1F
100
AcDbEntity
  8
0
  6
Continuous
 62
     7
370
    25
100
AcDbSpline
210
0.0
220
0.0
230
1.0
 70
     8
 71
     3
 72
    14
 73
    10
 74
     0
 42
0.00000001
 43
0.00000001
 40
0.0
 40
0.0
 40
0.0
 40
0.0
 40
0.0712798057068257
 40
0.2585323760757459
 40
0.4458670028011455
 40
0.6267438805899939
 40
0.8028728351980601
 40
0.9668889074465365
 40
1.0
 40
1.0
 40
1.0
 40
1.0
 10
885.5990897747439
 20
-515.9281158997692
 30
0.0
 10
885.7343585183354
 20
-515.9795184836097
 30
0.0
 10
886.2249792396279
 20
-516.1659560307513
 30
0.0
 10
886.9126082665683
 20
-516.7595681278763
 30
0.0
 10
887.6532979535334
 20
-517.715353281713
 30
0.0
 10
888.1986680032063
 20
-518.9370421041721
 30
0.0
 10
888.5347500607071
 20
-520.3324993329154
 30
0.0
 10
888.6374978363208
 20
-521.4640373394226
 30
0.0
 10
888.6423243275748
 20
-522.0962464964176
 30
0.0
 10
888.6431350245621
 20
-522.2024375225577
 30
0.0
  0
SPLINE
  5
16F
330
1F
100
AcDbEntity
  8
0
  6
Continuous
 62
     7
370
    25
100
AcDbSpline
210
0.0
220
0.0
230
1.0
 70
     8
 71
     3
 72
    24
 73
    20
 74
     0
 42
0.00000001
 43
0.00000001
 40
0.0
 40
0.0
 40
0.0
 40
0.0
 40
0.0324229057529916
 40
0.0945611105948508
 40
0.1568567695300111
 40
0.2192876445379364
 40
0.2818328745102168
 40
0.3444502333831152
 40
0.4070900225668959
 40
0.4696896440419322
 40
0.5321888883775214
 40
0.5945360077933693
 40
0.6566878195578159
 40
0.7186287747917036
 40
0.7804146948241191
 40
0.8421982576919902
 40
0.9043533644143952
 40
0.9676651096299815
 40
1.0
 40
1.0
 40
1.0
 40
1.0
 10
888.6431350245621
 20
-522.2024375225577
 30
0.0
 10
888.6373679035352
 20
-522.4982678232174
 30
0.0
 10
888.6205481473605
 20
-523.3610542122938
 30
0.0
 10
888.4310255178093
 20
-524.8890786502408
 30
0.0
 10
888.0045268470483
 20
-526.7804458218707
 30
0.0
 10
887.3702553374104
 20
-528.7134189886583
 30
0.0
 10
886.5443104106547
 20
-530.6408384783042
 30
0.0
 10
885.5433290742933
 20
-532.5192186176505
 30
0.0
 10
884.3900210215636
 20
-534.3051616233229
 30
0.0
 10
883.1110747116406
 20
-535.9577727621663
 30
0.0
 10
881.7369601250821
 20
-537.4395311806364
 30
0.0
 10
880.3010647799525
 20
-538.7175683276957
 30
0.0
 10
878.8390573021742
 20
-539.7645955615855
 30
0.0
 10
877.3875889130783
 20
-540.5606038531768
 30
0.0
 10
875.9841101965754
 20
-541.0921029483023
 30
0.0
 10
874.660344035244
 20
-541.360021854535
 30
0.0
 10
873.4521549157506
 20
-541.3534932282824
 30
0.0
 10
872.5301598570308
 20
-541.1781136877337
 30
0.0
 10
872.0665529135432
 20
-540.912219440005
 30
0.0
 10
871.9098230965383
 20
-540.8223295939304
 30
0.0
  0
SPLINE
  5
170
330
1F
100
AcDbEntity
  8
0
  6
Continuous
 62
     7
370
    25
100
AcDbSpline
210
0.0
220
0.0
230
1.0
 70
     8
 71
     3
 72
    14
 73
    10
 74
     0
 42
0.00000001
 43
0.00000001
 40
0.0
 40
0.0
 40
0.0
 40
0.0
 40
0.0712798057068357
 40
0.2585323760757929
 40
0.4458670028011932
 40
0.6267438805900412
 40
0.8028728351981097
 40
0.9668889074465704
 40
1.0
 40
1.0
 40
1.0
 40
1.0
 10
823.9742751358297
 20
-622.6654255481167
 30
0.0
 10
824.1095438794212
 20
-622.7168281319572
 30
0.0
 10
824.6001646007137
 20
-622.9032656790988
 30
0.0
 10
825.2877936276543
 20
-623.4968777762239
 30
0.0
 10
826.0284833146194
 20
-624.4526629300607
 30
0.0
 10
826.5738533642922
 20
-625.6743517525199
 30
0.0
 10
826.9099354217931
 20
-627.0698089812632
 30
0.0
 10
827.0126831974068
 20
-628.2013469877705
 30
0.0
 10
827.0175096886607
 20
-628.8335561447652
 30
0.0
 10
827.0183203856479
 20
-628.9397471709053
 30
0.0
  0
SPLINE
  5
171
330
1F
100
AcDbEntity
  8
0
  6
Continuous
 62
     7
370
    25
100
AcDbSpline
210
0.0
220
0.0
230
1.0
 70
     8
 71
     3
 72
    24
 73
    20
 74
     0
 42
0.00000001
 43
0.00000001
 40
0.0
 40
0.0
 40
0.0
 40
0.0
 40
0.0324229057529921
 40
0.0945611105948506
 40
0.1568567695300118
 40
0.2192876445379387
 40
0.2818328745102138
 40
0.344450233383109
 40
0.4070900225668961
 40
0.4696896440419325
 40
0.5321888883775223
 40
0.5945360077933705
 40
0.6566878195578171
 40
0.7186287747917054
 40
0.7804146948241213
 40
0.8421982576919925
 40
0.9043533644143992
 40
0.9676651096299876
 40
1.0
 40
1.0
 40
1.0
 40
1.0
 10
827.0183203856479
 20
-628.9397471709053
 30
0.0
 10
827.012553264621
 20
-629.2355774715649
 30
0.0
 10
826.9957335084464
 20
-630.0983638606413
 30
0.0
 10
826.8062108788951
 20
-631.6263882985883
 30
0.0
 10
826.3797122081342
 20
-633.5177554702182
 30
0.0
 10
825.7454406984963
 20
-635.4507286370059
 30
0.0
 10
824.9194957717406
 20
-637.3781481266516
 30
0.0
 10
823.9185144353793
 20
-639.256528265998
 30
0.0
 10
822.7652063826495
 20
-641.0424712716704
 30
0.0
 10
821.4862600727265
 20
-642.6950824105138
 30
0.0
 10
820.112145486168
 20
-644.1768408289838
 30
0.0
 10
818.6762501410384
 20
-645.4548779760432
 30
0.0
 10
817.21424266326
 20
-646.5019052099329
 30
0.0
 10
815.7627742741641
 20
-647.2979135015242
 30
0.0
 10
814.3592955576612
 20
-647.82941259665
 30
0.0
 10
813.0355293963298
 20
-648.0973315028825
 30
0.0
 10
811.8273402768364
 20
-648.09080287663
 30
0.0
 10
810.9053452181166
 20
-647.9154233360812
 30
0.0
 10
810.441738274629
 20
-647.6495290883524
 30
0.0
 10
810.2850084576241
 20
-647.559639242278
 30
0.0
  0
SPLINE
  5
172
330
1F
100
AcDbEntity
  8
0
  6
Continuous
 62
     7
370
    25
100
AcDbSpline
210
0.0
220
0.0
230
1.0
 70
     8
 71
     3
 72
    73
 73
    69
 74
     0
 42
0.00000001
 43
0.00000001
 40
0.0
 40
0.0
 40
0.0
 40
0.0
 40
0.0004597940251095
 40
0.015960603496653
 40
0.0314516594892928
 40
0.0469334833421726
 40
0.0624069598614658
 40
0.0778731874438814
 40
0.0933333504479447
 40
0.108788621974682
 40
0.124240097628846
 40
0.1396887563074655
 40
0.1551354421265139
 40
0.1705808614093233
 40
0.1860255894273038
 40
0.2014700827219819
 40
0.2169145972835638
 40
0.2323594147737122
 40
0.2478047490366258
 40
0.2632507492513244
 40
0.2786975121902925
 40
0.294145092737139
 40
0.3095935127092784
 40
0.3250427681275734
 40
0.3404928351177391
 40
0.3559436746390588
 40
0.3713952362285069
 40
0.3868474609310865
 40
0.4023002835661083
 40
0.4177536344573791
 40
0.4332074407348587
 40
0.4486616272971223
 40
0.4641161175083888
 40
0.4795708336909342
 40
0.4950256974632063
 40
0.5104806299658456
 40
0.5259355484710299
 40
0.5413903506884373
 40
0.5568449571117787
 40
0.5722992882562915
 40
0.5877532648260595
 40
0.6032068079718623
 40
0.6186598396745981
 40
0.6341122832993493
 40
0.6495640643742958
 40
0.6650151116601116
 40
0.6804653585896095
 40
0.6959147451741948
 40
0.7113632204932276
 40
0.7268107459039048
 40
0.7422572991319518
 40
0.7577028794246856
 40
0.7731475139641372
 40
0.7885912657422932
 40
0.8040342430831476
 40
0.8194766109416983
 40
0.834918603997295
 40
0.8503604964779451
 40
0.8658026021839258
 40
0.8812454168157258
 40
0.8966895622037181
 40
0.9121357981666188
 40
0.9275850278090456
 40
0.9430382917301152
 40
0.9584967455362775
 40
0.9739616144707585
 40
0.9894341195317564
 40
0.9999999999999999
 40
0.9999999999999999
 40
0.9999999999999999
 40
0.9999999999999999
 10
647.5668144778776
 20
-676.7035193158484
 30
0.0
 10
647.5383318272598
 20
-676.6675717839536
 30
0.0
 10
646.5496276070619
 20
-675.4197428172282
 30
0.0
 10
644.7746572638187
 20
-672.7343404489767
 30
0.0
 10
642.2632807347381
 20
-668.6364113734888
 30
0.0
 10
639.973635027658
 20
-664.2802565212046
 30
0.0
 10
637.8813483920269
 20
-659.7099948108071
 30
0.0
 10
635.9972845275705
 20
-654.923322034902
 30
0.0
 10
634.3224842199655
 20
-649.9307650313086
 30
0.0
 10
632.8602311834042
 20
-644.7398266822403
 30
0.0
 10
631.6128158738932
 20
-639.3592367809463
 30
0.0
 10
630.5823912907142
 20
-633.7978138064386
 30
0.0
 10
629.7707302423065
 20
-628.0647637169094
 30
0.0
 10
629.1792761713945
 20
-622.1695881291514
 30
0.0
 10
628.8091161877927
 20
-616.1220922668922
 30
0.0
 10
628.6609770031603
 20
-609.9323753098437
 30
0.0
 10
628.7352143496503
 20
-603.6107992080955
 30
0.0
 10
629.0318086507449
 20
-597.1679668080985
 30
0.0
 10
629.5503639446976
 20
-590.6146871885594
 30
0.0
 10
630.2901065501662
 20
-583.9619701774855
 30
0.0
 10
631.2498845227738
 20
-577.221006310282
 30
0.0
 10
632.4281684644344
 20
-570.4031452176009
 30
0.0
 10
633.8230534951601
 20
-563.5198740455481
 30
0.0
 10
635.4322622460705
 20
-556.5827959773445
 30
0.0
 10
637.2531487516864
 20
-549.6036088956492
 30
0.0
 10
639.282703142591
 20
-542.5940842021441
 30
0.0
 10
641.5175570590172
 20
-535.5660457994463
 30
0.0
 10
643.9539897225565
 20
-528.5313492348009
 30
0.0
 10
646.5879346165182
 20
-521.501861003612
 30
0.0
 10
649.4149867358631
 20
-514.4894380118895
 30
0.0
 10
652.4304103754913
 20
-507.5059071990549
 30
0.0
 10
655.6291474314332
 20
-500.5630453254771
 30
0.0
 10
659.0058261936174
 20
-493.6725589321271
 30
0.0
 10
662.554770611743
 20
-486.8460644825758
 30
0.0
 10
666.2700100177577
 20
-480.0950686999599
 30
0.0
 10
670.1452889936224
 20
-473.4309496226855
 30
0.0
 10
674.1740762172586
 20
-466.8649400743789
 30
0.0
 10
678.3495771368682
 20
-460.4081051837793
 30
0.0
 10
682.6647457814413
 20
-454.0713230997753
 30
0.0
 10
687.1122985945224
 20
-447.8652640341604
 30
0.0
 10
691.6847246253209
 20
-441.800375353243
 30
0.0
 10
696.3742980761946
 20
-435.8868637439049
 30
0.0
 10
701.1730912118495
 20
-430.1346777100429
 30
0.0
 10
706.0729876243289
 20
-424.5534904177654
 30
0.0
 10
711.0656958517374
 20
-419.1526829065511
 30
0.0
 10
716.1427633528135
 20
-413.9413276839874
 30
0.0
 10
721.2955908447965
 20
-408.9281727227275
 30
0.0
 10
726.5154470185557
 20
-404.121625880606
 30
0.0
 10
731.7934836526769
 20
-399.5297397689558
 30
0.0
 10
737.1207511570419
 20
-395.1601971009255
 30
0.0
 10
742.4882145861149
 20
-391.0202965617972
 30
0.0
 10
747.8867701716669
 20
-387.1169392588542
 30
0.0
 10
753.3072624338499
 20
-383.4566158280101
 30
0.0
 10
758.7405019321952
 20
-380.0453943095514
 30
0.0
 10
764.1772837260831
 20
-376.8889089203578
 30
0.0
 10
769.608406566229
 20
-373.992349983443
 30
0.0
 10
775.0246876914225
 20
-371.3604575620883
 30
0.0
 10
780.4169763655656
 20
-368.99751661491
 30
0.0
 10
785.7761842077534
 20
-366.9073433259828
 30
0.0
 10
791.0933086833938
 20
-365.0932880279203
 30
0.0
 10
796.3594737481023
 20
-363.5582036501907
 30
0.0
 10
801.565897020751
 20
-362.304565789535
 30
0.0
 10
806.7040816367914
 20
-361.3340556758668
 30
0.0
 10
811.765191563222
 20
-360.6491514549168
 30
0.0
 10
816.742460522283
 20
-360.2472373318984
 30
0.0
 10
821.6222509555969
 20
-360.1426633909467
 30
0.0
 10
825.9096916462946
 20
-360.2694199607328
 30
0.0
 10
828.5181444767783
 20
-360.5552313477972
 30
0.0
 10
829.5766049094726
 20
-360.6712081601381
 30
0.0
  0
SPLINE
  5
173
330
1F
100
AcDbEntity
  8
0
  6
Continuous
 62
     7
370
    25
100
AcDbSpline
210
0.0
220
0.0
230
1.0
 70
     8
 71
     3
 72
    14
 73
    10
 74
     0
 42
0.00000001
 43
0.00000001
 40
0.0
 40
0.0
 40
0.0
 40
0.0
 40
0.0712798057068618
 40
0.2585323760757978
 40
0.4458670028011947
 40
0.6267438805900581
 40
0.802872835198131
 40
0.9668889074465844
 40
1.0
 40
1.0
 40
1.0
 40
1.0
 10
908.1553374360959
 20
-405.6974876391117
 30
0.0
 10
908.2906061796875
 20
-405.7488902229522
 30
0.0
 10
908.7812269009801
 20
-405.935327770094
 30
0.0
 10
909.4688559279206
 20
-406.528939867219
 30
0.0
 10
910.2095456148855
 20
-407.4847250210559
 30
0.0
 10
910.7549156645582
 20
-408.7064138435151
 30
0.0
 10
911.090997722059
 20
-410.1018710722583
 30
0.0
 10
911.1937454976726
 20
-411.2334090787655
 30
0.0
 10
911.1985719889266
 20
-411.8656182357602
 30
0.0
 10
911.1993826859139
 20
-411.9718092619003
 30
0.0
  0
SPLINE
  5
174
330
1F
100
AcDbEntity
  8
0
  6
Continuous
 62
     7
370
    25
100
AcDbSpline
210
0.0
220
0.0
230
1.0
 70
     8
 71
     3
 72
    24
 73
    20
 74
     0
 42
0.00000001
 43
0.00000001
 40
0.0
 40
0.0
 40
0.0
 40
0.0
 40
0.0324229057529908
 40
0.0945611105948486
 40
0.1568567695300082
 40
0.219287644537926
 40
0.2818328745102236
 40
0.3444502333831095
 40
0.4070900225669014
 40
0.4696896440419384
 40
0.5321888883775276
 40
0.594536007793375
 40
0.6566878195578223
 40
0.7186287747917119
 40
0.7804146948241265
 40
0.8421982576919993
 40
0.904353364414405
 40
0.9676651096299946
 40
1.0
 40
1.0
 40
1.0
 40
1.0
 10
911.1993826859139
 20
-411.9718092619003
 30
0.0
 10
911.193615564887
 20
-412.2676395625599
 30
0.0
 10
911.1767958087122
 20
-413.1304259516362
 30
0.0
 10
910.9872731791611
 20
-414.6584503895833
 30
0.0
 10
910.5607745083998
 20
-416.549817561213
 30
0.0
 10
909.9265029987623
 20
-418.4827907280009
 30
0.0
 10
909.1005580720064
 20
-420.4102102176468
 30
0.0
 10
908.099576735645
 20
-422.2885903569933
 30
0.0
 10
906.9462686829152
 20
-424.0745333626656
 30
0.0
 10
905.6673223729921
 20
-425.7271445015091
 30
0.0
 10
904.2932077864334
 20
-427.2089029199793
 30
0.0
 10
902.8573124413039
 20
-428.4869400670386
 30
0.0
 10
901.3953049635255
 20
-429.5339673009282
 30
0.0
 10
899.9438365744295
 20
-430.3299755925194
 30
0.0
 10
898.5403578579266
 20
-430.8614746876451
 30
0.0
 10
897.2165916965952
 20
-431.1293935938775
 30
0.0
 10
896.0084025771017
 20
-431.1228649676249
 30
0.0
 10
895.086407518382
 20
-430.9474854270761
 30
0.0
 10
894.6228005748945
 20
-430.6815911793472
 30
0.0
 10
894.4660707578897
 20
-430.5917013332727
 30
0.0
  0
SPLINE
  5
175
330
1F
100
AcDbEntity
  8
0
  6
Continuous
 62
     7
370
    25
100
AcDbSpline
210
0.0
220
0.0
230
1.0
 70
     8
 71
     3
 72
    14
 73
    10
 74
     0
 42
0.00000001
 43
0.00000001
 40
0.0
 40
0.0
 40
0.0
 40
0.0
 40
0.0712798057068522
 40
0.2585323760757769
 40
0.4458670028011714
 40
0.6267438805900221
 40
0.8028728351980962
 40
0.9668889074465736
 40
1.0
 40
1.0
 40
1.0
 40
1.0
 10
739.7932128355679
 20
-697.3092406616089
 30
0.0
 10
739.9284815791594
 20
-697.3606432454493
 30
0.0
 10
740.4191023004521
 20
-697.5470807925911
 30
0.0
 10
741.1067313273925
 20
-698.140692889716
 30
0.0
 10
741.8474210143576
 20
-699.0964780435528
 30
0.0
 10
742.3927910640303
 20
-700.318166866012
 30
0.0
 10
742.7288731215311
 20
-701.7136240947555
 30
0.0
 10
742.8316208971447
 20
-702.8451621012623
 30
0.0
 10
742.8364473883987
 20
-703.4773712582573
 30
0.0
 10
742.837258085386
 20
-703.5835622843973
 30
0.0
  0
SPLINE
  5
176
330
1F
100
AcDbEntity
  8
0
  6
Continuous
 62
     7
370
    25
100
AcDbSpline
210
0.0
220
0.0
230
1.0
 70
     8
 71
     3
 72
    24
 73
    20
 74
     0
 42
0.00000001
 43
0.00000001
 40
0.0
 40
0.0
 40
0.0
 40
0.0
 40
0.0324229057529919
 40
0.094561110594837
 40
0.1568567695299947
 40
0.2192876445379189
 40
0.2818328745102026
 40
0.344450233383097
 40
0.4070900225668836
 40
0.4696896440419192
 40
0.532188888377502
 40
0.5945360077933592
 40
0.6566878195578094
 40
0.7186287747917012
 40
0.7804146948241147
 40
0.8421982576919886
 40
0.9043533644144037
 40
0.9676651096299882
 40
1.0
 40
1.0
 40
1.0
 40
1.0
 10
742.837258085386
 20
-703.5835622843973
 30
0.0
 10
742.8314909643591
 20
-703.8793925850571
 30
0.0
 10
742.8146712081844
 20
-704.7421789741333
 30
0.0
 10
742.6251485786331
 20
-706.2702034120803
 30
0.0
 10
742.1986499078723
 20
-708.1615705837098
 30
0.0
 10
741.5643783982346
 20
-710.0945437504976
 30
0.0
 10
740.7384334714789
 20
-712.0219632401435
 30
0.0
 10
739.7374521351176
 20
-713.9003433794898
 30
0.0
 10
738.5841440823879
 20
-715.6862863851621
 30
0.0
 10
737.3051977724648
 20
-717.3388975240055
 30
0.0
 10
735.9310831859062
 20
-718.8206559424757
 30
0.0
 10
734.4951878407767
 20
-720.0986930895352
 30
0.0
 10
733.0331803629982
 20
-721.1457203234249
 30
0.0
 10
731.5817119739022
 20
-721.9417286150162
 30
0.0
 10
730.1782332573993
 20
-722.4732277101419
 30
0.0
 10
728.8544670960679
 20
-722.7411466163745
 30
0.0
 10
727.6462779765743
 20
-722.7346179901222
 30
0.0
 10
726.7242829178547
 20
-722.5592384495732
 30
0.0
 10
726.2606759743669
 20
-722.2933442018444
 30
0.0
 10
726.1039461573622
 20
-722.2034543557701
 30
0.0
  0
SPLINE
  5
177
330
1F
100
AcDbEntity
  8
0
  6
Continuous
 62
     7
370
    25
100
AcDbSpline
210
0.0
220
0.0
230
1.0
 70
     8
 71
     3
 72
    14
 73
    10
 74
     0
 42
0.00000001
 43
0.00000001
 40
0.0
 40
0.0
 40
0.0
 40
0.0
 40
0.0712798057068318
 40
0.2585323760757393
 40
0.4458670028011258
 40
0.6267438805899795
 40
0.8028728351980517
 40
0.966888907446536
 40
1.0
 40
1.0
 40
1.0
 40
1.0
 10
885.5990897747496
 20
-321.5097485897626
 30
0.0
 10
885.7343585183411
 20
-321.5611511736031
 30
0.0
 10
886.2249792396335
 20
-321.7475887207448
 30
0.0
 10
886.9126082665739
 20
-322.3412008178695
 30
0.0
 10
887.653297953539
 20
-323.2969859717062
 30
0.0
 10
888.1986680032118
 20
-324.5186747941653
 30
0.0
 10
888.5347500607127
 20
-325.9141320229086
 30
0.0
 10
888.6374978363262
 20
-327.045670029416
 30
0.0
 10
888.6423243275804
 20
-327.6778791864109
 30
0.0
 10
888.6431350245676
 20
-327.7840702125511
 30
0.0
  0
SPLINE
  5
178
330
1F
100
AcDbEntity
  8
0
  6
Continuous
 62
     7
370
    25
100
AcDbSpline
210
0.0
220
0.0
230
1.0
 70
     8
 71
     3
 72
    24
 73
    20
 74
     0
 42
0.00000001
 43
0.00000001
 40
0.0
 40
0.0
 40
0.0
 40
0.0
 40
0.032422905752991
 40
0.0945611105948491
 40
0.1568567695300082
 40
0.2192876445379331
 40
0.2818328745102124
 40
0.344450233383106
 40
0.4070900225668937
 40
0.46968964404193
 40
0.5321888883775238
 40
0.5945360077933683
 40
0.6566878195578177
 40
0.7186287747917085
 40
0.7804146948241206
 40
0.8421982576919942
 40
0.9043533644143995
 40
0.9676651096299883
 40
1.0
 40
1.0
 40
1.0
 40
1.0
 10
888.6431350245676
 20
-327.7840702125511
 30
0.0
 10
888.6373679035407
 20
-328.0799005132107
 30
0.0
 10
888.6205481473661
 20
-328.942686902287
 30
0.0
 10
888.4310255178149
 20
-330.4707113402342
 30
0.0
 10
888.0045268470539
 20
-332.362078511864
 30
0.0
 10
887.3702553374161
 20
-334.2950516786517
 30
0.0
 10
886.5443104106603
 20
-336.2224711682975
 30
0.0
 10
885.5433290742989
 20
-338.1008513076439
 30
0.0
 10
884.3900210215692
 20
-339.8867943133163
 30
0.0
 10
883.1110747116461
 20
-341.5394054521597
 30
0.0
 10
881.7369601250874
 20
-343.0211638706299
 30
0.0
 10
880.3010647799579
 20
-344.2992010176894
 30
0.0
 10
878.8390573021795
 20
-345.3462282515789
 30
0.0
 10
877.3875889130833
 20
-346.1422365431703
 30
0.0
 10
875.9841101965807
 20
-346.6737356382957
 30
0.0
 10
874.6603440352491
 20
-346.9416545445284
 30
0.0
 10
873.4521549157557
 20
-346.9351259182757
 30
0.0
 10
872.530159857036
 20
-346.7597463777269
 30
0.0
 10
872.0665529135484
 20
-346.4938521299981
 30
0.0
 10
871.9098230965436
 20
-346.4039622839235
 30
0.0
  0
SPLINE
  5
179
330
1F
100
AcDbEntity
  8
0
  6
Continuous
 62
     7
370
    25
100
AcDbSpline
210
0.0
220
0.0
230
1.0
 70
     8
 71
     3
 72
    14
 73
    10
 74
     0
 42
0.00000001
 43
0.00000001
 40
0.0
 40
0.0
 40
0.0
 40
0.0
 40
0.071279805706821
 40
0.2585323760757584
 40
0.4458670028011436
 40
0.6267438805900015
 40
0.802872835198066
 40
0.9668889074465382
 40
1.0
 40
1.0
 40
1.0
 40
1.0
 10
655.6121505353074
 20
-719.8588112606072
 30
0.0
 10
655.7474192788987
 20
-719.9102138444478
 30
0.0
 10
656.2380400001915
 20
-720.0966513915893
 30
0.0
 10
656.9256690271319
 20
-720.6902634887142
 30
0.0
 10
657.666358714097
 20
-721.6460486425509
 30
0.0
 10
658.2117287637699
 20
-722.86773746501
 30
0.0
 10
658.5478108212707
 20
-724.2631946937536
 30
0.0
 10
658.6505585968845
 20
-725.3947327002605
 30
0.0
 10
658.6553850881384
 20
-726.0269418572556
 30
0.0
 10
658.6561957851256
 20
-726.1331328833958
 30
0.0
  0
SPLINE
  5
17A
330
1F
100
AcDbEntity
  8
0
  6
Continuous
 62
     7
370
    25
100
AcDbSpline
210
0.0
220
0.0
230
1.0
 70
     8
 71
     3
 72
    24
 73
    20
 74
     0
 42
0.00000001
 43
0.00000001
 40
0.0
 40
0.0
 40
0.0
 40
0.0
 40
0.0324229057529918
 40
0.0945611105948299
 40
0.1568567695299899
 40
0.2192876445379124
 40
0.2818328745101983
 40
0.3444502333830946
 40
0.4070900225668819
 40
0.4696896440419173
 40
0.5321888883775063
 40
0.5945360077933577
 40
0.6566878195578073
 40
0.7186287747916984
 40
0.7804146948241163
 40
0.8421982576919895
 40
0.9043533644143991
 40
0.9676651096299842
 40
1.0
 40
1.0
 40
1.0
 40
1.0
 10
658.6561957851256
 20
-726.1331328833958
 30
0.0
 10
658.6504286640987
 20
-726.4289631840554
 30
0.0
 10
658.6336089079241
 20
-727.2917495731316
 30
0.0
 10
658.4440862783729
 20
-728.8197740110785
 30
0.0
 10
658.017587607612
 20
-730.7111411827079
 30
0.0
 10
657.3833160979743
 20
-732.6441143494957
 30
0.0
 10
656.5573711712186
 20
-734.5715338391417
 30
0.0
 10
655.5563898348572
 20
-736.4499139784881
 30
0.0
 10
654.4030817821274
 20
-738.2358569841605
 30
0.0
 10
653.1241354722044
 20
-739.8884681230039
 30
0.0
 10
651.7500208856459
 20
-741.3702265414742
 30
0.0
 10
650.3141255405162
 20
-742.6482636885337
 30
0.0
 10
648.8521180627378
 20
-743.6952909224234
 30
0.0
 10
647.4006496736419
 20
-744.4912992140147
 30
0.0
 10
645.9971709571389
 20
-745.0227983091404
 30
0.0
 10
644.6734047958075
 20
-745.2907172153731
 30
0.0
 10
643.4652156763138
 20
-745.2841885891205
 30
0.0
 10
642.5432206175943
 20
-745.1088090485716
 30
0.0
 10
642.0796136741066
 20
-744.8429148008429
 30
0.0
 10
641.9228838571019
 20
-744.7530249547683
 30
0.0
  0
SPLINE
  5
17B
330
1F
100
AcDbEntity
  8
0
  6
Continuous
 62
     7
370
    25
100
AcDbSpline
210
0.0
220
0.0
230
1.0
 70
     8
 71
     3
 72
    14
 73
    10
 74
     0
 42
0.00000001
 43
0.00000001
 40
0.0
 40
0.0
 40
0.0
 40
0.0
 40
0.0712798057068348
 40
0.2585323760757504
 40
0.4458670028011329
 40
0.6267438805900007
 40
0.8028728351980864
 40
0.9668889074465653
 40
0.9999999999999999
 40
0.9999999999999999
 40
0.9999999999999999
 40
0.9999999999999999
 10
823.9742751358398
 20
-285.9229354425972
 30
0.0
 10
824.1095438794313
 20
-285.9743380264377
 30
0.0
 10
824.6001646007237
 20
-286.1607755735794
 30
0.0
 10
825.2877936276641
 20
-286.7543876707043
 30
0.0
 10
826.028483314629
 20
-287.710172824541
 30
0.0
 10
826.5738533643018
 20
-288.9318616470001
 30
0.0
 10
826.9099354218027
 20
-290.3273188757435
 30
0.0
 10
827.0126831974163
 20
-291.4588568822507
 30
0.0
 10
827.0175096886703
 20
-292.0910660392456
 30
0.0
 10
827.0183203856576
 20
-292.1972570653856
 30
0.0
  0
SPLINE
  5
17C
330
1F
100
AcDbEntity
  8
0
  6
Continuous
 62
     7
370
    25
100
AcDbSpline
210
0.0
220
0.0
230
1.0
 70
     8
 71
     3
 72
    24
 73
    20
 74
     0
 42
0.00000001
 43
0.00000001
 40
0.0
 40
0.0
 40
0.0
 40
0.0
 40
0.0324229057529921
 40
0.0945611105948506
 40
0.1568567695300118
 40
0.2192876445379387
 40
0.2818328745102138
 40
0.344450233383109
 40
0.4070900225668961
 40
0.4696896440419325
 40
0.5321888883775223
 40
0.5945360077933705
 40
0.6566878195578171
 40
0.7186287747917054
 40
0.7804146948241213
 40
0.8421982576919925
 40
0.9043533644143992
 40
0.9676651096299876
 40
1.0
 40
1.0
 40
1.0
 40
1.0
 10
827.0183203856576
 20
-292.1972570653855
 30
0.0
 10
827.0125532646307
 20
-292.4930873660452
 30
0.0
 10
826.9957335084562
 20
-293.3558737551215
 30
0.0
 10
826.8062108789047
 20
-294.8838981930687
 30
0.0
 10
826.3797122081438
 20
-296.7752653646984
 30
0.0
 10
825.745440698506
 20
-298.7082385314861
 30
0.0
 10
824.9194957717502
 20
-300.635658021132
 30
0.0
 10
823.9185144353889
 20
-302.5140381604782
 30
0.0
 10
822.7652063826591
 20
-304.2999811661506
 30
0.0
 10
821.4862600727362
 20
-305.952592304994
 30
0.0
 10
820.1121454861776
 20
-307.4343507234641
 30
0.0
 10
818.6762501410481
 20
-308.7123878705237
 30
0.0
 10
817.2142426632697
 20
-309.7594151044133
 30
0.0
 10
815.7627742741738
 20
-310.5554233960046
 30
0.0
 10
814.359295557671
 20
-311.0869224911302
 30
0.0
 10
813.0355293963395
 20
-311.3548413973629
 30
0.0
 10
811.827340276846
 20
-311.3483127711103
 30
0.0
 10
810.9053452181263
 20
-311.1729332305615
 30
0.0
 10
810.4417382746386
 20
-310.9070389828327
 30
0.0
 10
810.2850084576338
 20
-310.8171491367582
 30
0.0
  0
SPLINE
  5
17D
330
1F
100
AcDbEntity
  8
0
  6
Continuous
 62
     7
370
    25
100
AcDbSpline
210
0.0
220
0.0
230
1.0
 70
     8
 71
     3
 72
    14
 73
    10
 74
     0
 42
0.00000001
 43
0.00000001
 40
0.0
 40
0.0
 40
0.0
 40
0.0
 40
0.0712798057068616
 40
0.2585323760757945
 40
0.4458670028011968
 40
0.6267438805900495
 40
0.8028728351981226
 40
0.9668889074465937
 40
1.0
 40
1.0
 40
1.0
 40
1.0
 10
593.9873358963977
 20
-684.2719981134419
 30
0.0
 10
594.1226046399892
 20
-684.3234006972824
 30
0.0
 10
594.6132253612817
 20
-684.509838244424
 30
0.0
 10
595.3008543882221
 20
-685.1034503415492
 30
0.0
 10
596.0415440751872
 20
-686.0592354953859
 30
0.0
 10
596.58691412486
 20
-687.280924317845
 30
0.0
 10
596.9229961823606
 20
-688.6763815465886
 30
0.0
 10
597.0257439579744
 20
-689.8079195530955
 30
0.0
 10
597.0305704492282
 20
-690.4401287100904
 30
0.0
 10
597.0313811462156
 20
-690.5463197362303
 30
0.0
  0
SPLINE
  5
17E
330
1F
100
AcDbEntity
  8
0
  6
Continuous
 62
     7
370
    25
100
AcDbSpline
210
0.0
220
0.0
230
1.0
 70
     8
 71
     3
 72
    24
 73
    20
 74
     0
 42
0.00000001
 43
0.00000001
 40
0.0
 40
0.0
 40
0.0
 40
0.0
 40
0.0324229057529909
 40
0.0945611105948489
 40
0.156856769530008
 40
0.2192876445379323
 40
0.2818328745102132
 40
0.3444502333831074
 40
0.4070900225668956
 40
0.4696896440419321
 40
0.5321888883775218
 40
0.5945360077933748
 40
0.6566878195578156
 40
0.7186287747917096
 40
0.7804146948241293
 40
0.842198257692005
 40
0.9043533644144103
 40
0.9676651096299964
 40
1.0
 40
1.0
 40
1.0
 40
1.0
 10
597.0313811462156
 20
-690.5463197362303
 30
0.0
 10
597.0256140251886
 20
-690.84215003689
 30
0.0
 10
597.0087942690141
 20
-691.7049364259663
 30
0.0
 10
596.8192716394627
 20
-693.2329608639134
 30
0.0
 10
596.3927729687017
 20
-695.1243280355432
 30
0.0
 10
595.7585014590638
 20
-697.057301202331
 30
0.0
 10
594.9325565323081
 20
-698.9847206919768
 30
0.0
 10
593.9315751959468
 20
-700.8631008313232
 30
0.0
 10
592.7782671432169
 20
-702.6490438369957
 30
0.0
 10
591.499320833294
 20
-704.3016549758389
 30
0.0
 10
590.1252062467353
 20
-705.7834133943092
 30
0.0
 10
588.6893109016056
 20
-707.0614505413687
 30
0.0
 10
587.2273034238274
 20
-708.1084777752582
 30
0.0
 10
585.7758350347312
 20
-708.9044860668494
 30
0.0
 10
584.3723563182283
 20
-709.4359851619752
 30
0.0
 10
583.0485901568968
 20
-709.7039040682076
 30
0.0
 10
581.8404010374035
 20
-709.697375441955
 30
0.0
 10
580.9184059786838
 20
-709.5219959014061
 30
0.0
 10
580.4547990351963
 20
-709.2561016536772
 30
0.0
 10
580.2980692181916
 20
-709.1662118076027
 30
0.0
  0
SPLINE
  5
17F
330
1F
100
AcDbEntity
  8
0
  6
Continuous
 62
     7
370
    25
100
AcDbSpline
210
0.0
220
0.0
230
1.0
 70
     8
 71
     3
 72
    14
 73
    10
 74
     0
 42
0.00000001
 43
0.00000001
 40
0.0
 40
0.0
 40
0.0
 40
0.0
 40
0.0712798057068198
 40
0.2585323760757396
 40
0.4458670028011343
 40
0.6267438805899749
 40
0.8028728351980368
 40
0.9668889074464988
 40
1.0
 40
1.0
 40
1.0
 40
1.0
 10
739.7932128355786
 20
-308.4725060415952
 30
0.0
 10
739.9284815791701
 20
-308.5239086254356
 30
0.0
 10
740.4191023004627
 20
-308.7103461725773
 30
0.0
 10
741.1067313274033
 20
-309.3039582697022
 30
0.0
 10
741.8474210143684
 20
-310.2597434235388
 30
0.0
 10
742.3927910640414
 20
-311.481432245998
 30
0.0
 10
742.7288731215422
 20
-312.8768894747413
 30
0.0
 10
742.831620897156
 20
-314.0084274812485
 30
0.0
 10
742.83644738841
 20
-314.6406366382436
 30
0.0
 10
742.8372580853971
 20
-314.7468276643839
 30
0.0
  0
SPLINE
  5
180
330
1F
100
AcDbEntity
  8
0
  6
Continuous
 62
     7
370
    25
100
AcDbSpline
210
0.0
220
0.0
230
1.0
 70
     8
 71
     3
 72
    24
 73
    20
 74
     0
 42
0.00000001
 43
0.00000001
 40
0.0
 40
0.0
 40
0.0
 40
0.0
 40
0.032422905752992
 40
0.0945611105948372
 40
0.1568567695299951
 40
0.2192876445379194
 40
0.2818328745102031
 40
0.3444502333830977
 40
0.4070900225668849
 40
0.4696896440419137
 40
0.5321888883775079
 40
0.59453600779336
 40
0.6566878195578048
 40
0.7186287747916963
 40
0.7804146948241155
 40
0.8421982576919899
 40
0.9043533644143942
 40
0.9676651096299868
 40
1.0
 40
1.0
 40
1.0
 40
1.0
 10
742.8372580853971
 20
-314.7468276643839
 30
0.0
 10
742.8314909643702
 20
-315.0426579650435
 30
0.0
 10
742.8146712081957
 20
-315.9054443541198
 30
0.0
 10
742.6251485786444
 20
-317.4334687920667
 30
0.0
 10
742.1986499078836
 20
-319.3248359636963
 30
0.0
 10
741.5643783982457
 20
-321.257809130484
 30
0.0
 10
740.73843347149
 20
-323.18522862013
 30
0.0
 10
739.7374521351286
 20
-325.0636087594763
 30
0.0
 10
738.584144082399
 20
-326.8495517651486
 30
0.0
 10
737.305197772476
 20
-328.502162903992
 30
0.0
 10
735.9310831859175
 20
-329.9839213224623
 30
0.0
 10
734.4951878407879
 20
-331.2619584695219
 30
0.0
 10
733.0331803630095
 20
-332.3089857034115
 30
0.0
 10
731.5817119739136
 20
-333.1049939950028
 30
0.0
 10
730.1782332574106
 20
-333.6364930901285
 30
0.0
 10
728.8544670960791
 20
-333.9044119963611
 30
0.0
 10
727.6462779765856
 20
-333.8978833701087
 30
0.0
 10
726.7242829178658
 20
-333.7225038295599
 30
0.0
 10
726.2606759743782
 20
-333.4566095818311
 30
0.0
 10
726.1039461573733
 20
-333.3667197357566
 30
0.0
  0
SPLINE
  5
181
330
1F
100
AcDbEntity
  8
0
  6
Continuous
 62
     7
370
    25
100
AcDbSpline
210
0.0
220
0.0
230
1.0
 70
     8
 71
     3
 72
    14
 73
    10
 74
     0
 42
0.00000001
 43
0.00000001
 40
0.0
 40
0.0
 40
0.0
 40
0.0
 40
0.0712798057068649
 40
0.2585323760758009
 40
0.4458670028011985
 40
0.626743880590064
 40
0.802872835198151
 40
0.9668889074466218
 40
1.0
 40
1.0
 40
1.0
 40
1.0
 10
571.4310882350513
 20
-600.0842590640926
 30
0.0
 10
571.5663569786428
 20
-600.1356616479331
 30
0.0
 10
572.0569776999355
 20
-600.3220991950749
 30
0.0
 10
572.7446067268759
 20
-600.9157112922
 30
0.0
 10
573.485296413841
 20
-601.8714964460368
 30
0.0
 10
574.0306664635137
 20
-603.093185268496
 30
0.0
 10
574.3667485210144
 20
-604.4886424972395
 30
0.0
 10
574.469496296628
 20
-605.6201805037465
 30
0.0
 10
574.474322787882
 20
-606.2523896607412
 30
0.0
 10
574.4751334848694
 20
-606.358580686881
 30
0.0
  0
SPLINE
  5
182
330
1F
100
AcDbEntity
  8
0
  6
Continuous
 62
     7
370
    25
100
AcDbSpline
210
0.0
220
0.0
230
1.0
 70
     8
 71
     3
 72
    24
 73
    20
 74
     0
 42
0.00000001
 43
0.00000001
 40
0.0
 40
0.0
 40
0.0
 40
0.0
 40
0.0324229057529914
 40
0.0945611105948504
 40
0.1568567695300112
 40
0.219287644537931
 40
0.2818328745102176
 40
0.3444502333831126
 40
0.4070900225668992
 40
0.4696896440419348
 40
0.5321888883775251
 40
0.5945360077933726
 40
0.6566878195578195
 40
0.7186287747917112
 40
0.7804146948241274
 40
0.8421982576920014
 40
0.9043533644144065
 40
0.9676651096299937
 40
1.0
 40
1.0
 40
1.0
 40
1.0
 10
574.4751334848694
 20
-606.358580686881
 30
0.0
 10
574.4693663638425
 20
-606.6544109875407
 30
0.0
 10
574.4525466076677
 20
-607.517197376617
 30
0.0
 10
574.2630239781166
 20
-609.0452218145642
 30
0.0
 10
573.8365253073555
 20
-610.936588986194
 30
0.0
 10
573.2022537977177
 20
-612.8695621529818
 30
0.0
 10
572.376308870962
 20
-614.7969816426275
 30
0.0
 10
571.3753275346006
 20
-616.6753617819741
 30
0.0
 10
570.2220194818708
 20
-618.4613047876463
 30
0.0
 10
568.9430731719478
 20
-620.1139159264897
 30
0.0
 10
567.5689585853893
 20
-621.5956743449599
 30
0.0
 10
566.1330632402596
 20
-622.8737114920193
 30
0.0
 10
564.6710557624813
 20
-623.9207387259089
 30
0.0
 10
563.2195873733853
 20
-624.7167470175001
 30
0.0
 10
561.8161086568823
 20
-625.2482461126259
 30
0.0
 10
560.4923424955509
 20
-625.5161650188584
 30
0.0
 10
559.2841533760574
 20
-625.5096363926058
 30
0.0
 10
558.3621583173378
 20
-625.334256852057
 30
0.0
 10
557.8985513738503
 20
-625.0683626043282
 30
0.0
 10
557.7418215568455
 20
-624.9784727582537
 30
0.0
  0
SPLINE
  5
183
330
1F
100
AcDbEntity
  8
0
  6
Continuous
 62
     7
370
    25
100
AcDbSpline
210
0.0
220
0.0
230
1.0
 70
     8
 71
     3
 72
    14
 73
    10
 74
     0
 42
0.00000001
 43
0.00000001
 40
0.0
 40
0.0
 40
0.0
 40
0.0
 40
0.0712798057068341
 40
0.2585323760757649
 40
0.4458670028011604
 40
0.6267438805899981
 40
0.8028728351980587
 40
0.966888907446527
 40
1.0
 40
1.0
 40
1.0
 40
1.0
 10
655.6121505353169
 20
-383.1163211550875
 30
0.0
 10
655.7474192789084
 20
-383.167723738928
 30
0.0
 10
656.2380400002011
 20
-383.3541612860697
 30
0.0
 10
656.9256690271416
 20
-383.9477733831947
 30
0.0
 10
657.6663587141067
 20
-384.9035585370312
 30
0.0
 10
658.2117287637794
 20
-386.1252473594904
 30
0.0
 10
658.5478108212802
 20
-387.5207045882336
 30
0.0
 10
658.650558596894
 20
-388.652242594741
 30
0.0
 10
658.6553850881479
 20
-389.2844517517359
 30
0.0
 10
658.6561957851352
 20
-389.3906427778761
 30
0.0
  0
SPLINE
  5
184
330
1F
100
AcDbEntity
  8
0
  6
Continuous
 62
     7
370
    25
100
AcDbSpline
210
0.0
220
0.0
230
1.0
 70
     8
 71
     3
 72
    24
 73
    20
 74
     0
 42
0.00000001
 43
0.00000001
 40
0.0
 40
0.0
 40
0.0
 40
0.0
 40
0.0324229057529918
 40
0.09456111059483
 40
0.15685676952999
 40
0.2192876445379126
 40
0.2818328745101985
 40
0.3444502333830947
 40
0.4070900225668822
 40
0.4696896440419172
 40
0.5321888883775124
 40
0.5945360077933588
 40
0.6566878195578034
 40
0.7186287747916948
 40
0.7804146948241136
 40
0.8421982576919826
 40
0.904353364414387
 40
0.9676651096299744
 40
1.0
 40
1.0
 40
1.0
 40
1.0
 10
658.6561957851352
 20
-389.3906427778761
 30
0.0
 10
658.6504286641084
 20
-389.6864730785357
 30
0.0
 10
658.6336089079336
 20
-390.5492594676119
 30
0.0
 10
658.4440862783824
 20
-392.0772839055587
 30
0.0
 10
658.0175876076215
 20
-393.9686510771883
 30
0.0
 10
657.3833160979839
 20
-395.901624243976
 30
0.0
 10
656.5573711712282
 20
-397.829043733622
 30
0.0
 10
655.5563898348669
 20
-399.7074238729684
 30
0.0
 10
654.4030817821371
 20
-401.4933668786409
 30
0.0
 10
653.124135472214
 20
-403.1459780174843
 30
0.0
 10
651.7500208856554
 20
-404.6277364359545
 30
0.0
 10
650.3141255405258
 20
-405.905773583014
 30
0.0
 10
648.8521180627474
 20
-406.9528008169037
 30
0.0
 10
647.4006496736515
 20
-407.748809108495
 30
0.0
 10
645.9971709571486
 20
-408.2803082036207
 30
0.0
 10
644.6734047958172
 20
-408.5482271098533
 30
0.0
 10
643.4652156763237
 20
-408.5416984836008
 30
0.0
 10
642.543220617604
 20
-408.3663189430521
 30
0.0
 10
642.0796136741162
 20
-408.1004246953232
 30
0.0
 10
641.9228838571114
 20
-408.0105348492486
 30
0.0
  0
SPLINE
  5
185
330
1F
100
AcDbEntity
  8
0
  6
Continuous
 62
     7
370
    25
100
AcDbSpline
210
0.0
220
0.0
230
1.0
 70
     8
 71
     3
 72
    14
 73
    10
 74
     0
 42
0.00000001
 43
0.00000001
 40
0.0
 40
0.0
 40
0.0
 40
0.0
 40
0.0712798057068397
 40
0.2585323760757625
 40
0.4458670028011498
 40
0.6267438805899914
 40
0.8028728351980682
 40
0.9668889074465499
 40
1.0
 40
1.0
 40
1.0
 40
1.0
 10
593.987335896403
 20
-489.8536308034351
 30
0.0
 10
594.1226046399943
 20
-489.9050333872756
 30
0.0
 10
594.6132253612869
 20
-490.0914709344173
 30
0.0
 10
595.3008543882274
 20
-490.6850830315423
 30
0.0
 10
596.0415440751925
 20
-491.6408681853789
 30
0.0
 10
596.5869141248652
 20
-492.862557007838
 30
0.0
 10
596.9229961823661
 20
-494.2580142365815
 30
0.0
 10
597.0257439579798
 20
-495.3895522430886
 30
0.0
 10
597.0305704492338
 20
-496.0217614000836
 30
0.0
 10
597.0313811462211
 20
-496.1279524262237
 30
0.0
  0
SPLINE
  5
186
330
1F
100
AcDbEntity
  8
0
  6
Continuous
 62
     7
370
    25
100
AcDbSpline
210
0.0
220
0.0
230
1.0
 70
     8
 71
     3
 72
    24
 73
    20
 74
     0
 42
0.00000001
 43
0.00000001
 40
0.0
 40
0.0
 40
0.0
 40
0.0
 40
0.032422905752991
 40
0.0945611105948491
 40
0.1568567695300083
 40
0.2192876445379328
 40
0.2818328745102123
 40
0.3444502333831062
 40
0.4070900225668939
 40
0.4696896440419301
 40
0.532188888377524
 40
0.5945360077933686
 40
0.6566878195578179
 40
0.7186287747917087
 40
0.780414694824121
 40
0.8421982576919945
 40
0.9043533644143998
 40
0.9676651096299886
 40
1.0
 40
1.0
 40
1.0
 40
1.0
 10
597.0313811462211
 20
-496.1279524262237
 30
0.0
 10
597.0256140251942
 20
-496.4237827268833
 30
0.0
 10
597.0087942690195
 20
-497.2865691159597
 30
0.0
 10
596.8192716394683
 20
-498.8145935539067
 30
0.0
 10
596.3927729687073
 20
-500.7059607255365
 30
0.0
 10
595.7585014590694
 20
-502.6389338923243
 30
0.0
 10
594.9325565323137
 20
-504.5663533819701
 30
0.0
 10
593.9315751959523
 20
-506.4447335213165
 30
0.0
 10
592.7782671432225
 20
-508.2306765269889
 30
0.0
 10
591.4993208332995
 20
-509.8832876658324
 30
0.0
 10
590.1252062467408
 20
-511.3650460843025
 30
0.0
 10
588.6893109016113
 20
-512.643083231362
 30
0.0
 10
587.2273034238328
 20
-513.6901104652515
 30
0.0
 10
585.7758350347368
 20
-514.4861187568428
 30
0.0
 10
584.3723563182339
 20
-515.0176178519685
 30
0.0
 10
583.0485901569026
 20
-515.285536758201
 30
0.0
 10
581.8404010374089
 20
-515.2790081319482
 30
0.0
 10
580.9184059786894
 20
-515.1036285913996
 30
0.0
 10
580.4547990352019
 20
-514.8377343436706
 30
0.0
 10
580.298069218197
 20
-514.7478444975961
 30
0.0
  0
LWPOLYLINE
  5
187
330
1F
100
AcDbEntity
  8
0
  6
Continuous
 62
     7
370
    25
100
AcDbPolyline
 90
      174
 70
   128
 43
0.0
 10
920.0836232961
 20
-406.6039259267
 10
919.9598179715
 20
-398.8034766123
 10
919.5885652876
 20
-391.1562580833
 10
918.9703548983
 20
-383.6723564404
 10
918.1060021763
 20
-376.3616423813
 10
916.9966471372
 20
-369.2337581829
 10
915.6437529361
 20
-362.2981049831
 10
914.0491039375
 20
-355.5638303817
 10
912.2148033626
 20
-349.0398163756
 10
910.1432705144
 20
-342.7346676438
 10
907.8372375875
 20
-336.6567001987
 10
905.2997460641
 20
-330.8139304178
 10
902.5341427029
 20
-325.2140644707
 10
899.5440751248
 20
-319.8644881554
 10
896.3334870018
 20
-314.7722571569
 10
892.9066128557
 20
-309.944087741
 10
889.2679724735
 20
-305.3863478967
 10
885.4223649454
 20
-301.1050489366
 10
881.3748623357
 20
-297.105837569
 10
877.1308029931
 20
-293.39398845
 10
872.6957845094
 20
-289.9743972266
 10
868.0756563373
 20
-286.8515740801
 10
863.2765120751
 20
-284.029637777
 10
858.3046814295
 20
-281.512310237
 10
853.1667218676
 20
-279.302911624
 10
847.8694099679
 20
-277.4043559669
 10
842.4197324825
 20
-275.8191473165
 10
836.8248771222
 20
-274.5493764427
 10
831.0922230764
 20
-273.5967180767
 10
825.2293312804
 20
-272.9624287027
 10
819.2439344432
 20
-272.6473449001
 10
813.1439268488
 20
-272.6518822406
 10
806.9373539439
 20
-272.9760347398
 10
800.632401727
 20
-273.619374865
 10
794.2373859511
 20
-274.5810540996
 10
787.7607411565
 20
-275.8598040617
 10
781.2110095459
 20
-277.4539381771
 10
774.5968297177
 20
-279.3613539041
 10
767.9269252731
 20
-281.5795355061
 10
761.2100933093
 20
-284.10555737
 10
754.4551928177
 20
-286.9360878649
 10
747.6711329992
 20
-290.0673937359
 10
740.8668615134
 20
-293.4953450284
 10
734.0513526777
 20
-297.215420535
 10
727.2335956307
 20
-301.2227137585
 10
720.4225824762
 20
-305.5119393836
 10
713.6272964233
 20
-310.0774402472
 10
706.8566999384
 20
-314.9131948006
 10
700.1197229241
 20
-320.0128250506
 10
693.4252509413
 20
-325.3696049722
 10
686.7821134904
 20
-330.9764693795
 10
680.1990723651
 20
-336.8260232441
 10
673.6848100967
 20
-342.9105514486
 10
667.2479185026
 20
-349.2220289625
 10
660.8968873539
 20
-355.7521314261
 10
654.6400931784
 20
-362.4922461302
 10
648.4857882125
 20
-369.4334833753
 10
642.4420895172
 20
-376.5666881967
 10
636.5169682719
 20
-383.8824524388
 10
630.7182392618
 20
-391.3711271642
 10
625.0535505699
 20
-399.0228353795
 10
619.5303734906
 20
-406.8274850628
 10
614.155992675
 20
-414.7747824736
 10
608.9374965233
 20
-422.8542457304
 10
603.8817678355
 20
-431.0552186345
 10
598.995474734
 20
-439.3668847255
 10
594.2850618682
 20
-447.778281547
 10
589.756741915
 20
-456.2783151053
 10
585.4164873846
 20
-464.8557745016
 10
581.2700227431
 20
-473.4993467184
 10
577.3228168624
 20
-482.1976315403
 10
573.5800758075
 20
-490.9391565902
 10
570.0467359694
 20
-499.7123924602
 10
566.7274575553
 20
-508.5057679186
 10
563.6266184411
 20
-517.3076851709
 10
560.7483083983
 20
-526.1065351566
 10
558.0963236992
 20
-534.8907128607
 10
555.6741621102
 20
-543.64863262
 10
553.4850182786
 20
-552.3687434033
 10
551.5317795188
 20
-561.0395440467
 10
549.8170220044
 20
-569.6495984226
 10
548.3430073703
 20
-578.1875505231
 10
547.11167973
 20
-586.6421394377
 10
546.124663111
 20
-595.0022142058
 10
545.3832593134
 20
-603.2567485235
 10
544.8884461924
 20
-611.3948552869
 10
544.6408763691
 20
-619.4058009512
 10
544.6408763691
 20
-627.2790196874
 10
544.8884461924
 20
-635.0041273179
 10
545.3832593134
 20
-642.5709350122
 10
546.124663111
 20
-649.9694627258
 10
547.11167973
 20
-657.1899523624
 10
548.3430073703
 20
-664.2228806444
 10
549.8170220044
 20
-671.0589716736
 10
551.5317795188
 20
-677.6892091649
 10
553.4850182786
 20
-684.1048483387
 10
555.6741621102
 20
-690.297427454
 10
558.0963236992
 20
-696.2587789693
 10
560.7483083983
 20
-701.9810403146
 10
563.6266184411
 20
-707.4566642617
 10
566.7274575553
 20
-712.6784288784
 10
570.0467359694
 20
-717.6394470538
 10
573.5800758075
 20
-722.3331755817
 10
577.3228168624
 20
-726.7534237904
 10
581.2700227431
 20
-730.8943617084
 10
585.4164873846
 20
-734.7505277529
 10
589.756741915
 20
-738.3168359338
 10
594.2850618682
 20
-741.5885825614
 10
598.995474734
 20
-744.5614524503
 10
603.8817678355
 20
-747.231524611
 10
608.9374965233
 20
-749.5952774209
 10
614.155992675
 20
-751.6495932697
 10
619.5303734906
 20
-753.3917626707
 10
625.0535505699
 20
-754.8194878349
 10
630.7182392618
 20
-755.9308857011
 10
636.5169682719
 20
-756.7244904199
 10
642.4420895172
 20
-757.199255287
 10
648.4857882125
 20
-757.3545541235
 10
654.6400931784
 20
-757.1901821022
 10
660.8968873539
 20
-756.7063560172
 10
667.2479185026
 20
-755.9037139984
 10
673.6848100967
 20
-754.7833146697
 10
680.1990723651
 20
-753.3466357526
 10
686.7821134904
 20
-751.5955721176
 10
693.4252509413
 20
-749.5324332846
 10
700.1197229241
 20
-747.1599403772
 10
706.8566999384
 20
-744.4812225332
 10
713.6272964233
 20
-741.4998127781
 10
720.4225824762
 20
-738.2196433649
 10
727.2335956307
 20
-734.6450405881
 10
734.0513526777
 20
-730.7807190772
 10
740.8668615134
 20
-726.6317755788
 10
747.6711329992
 20
-722.2036822344
 10
754.4551928177
 20
-717.5022793628
 10
761.2100933093
 20
-712.5337677574
 10
767.9269252731
 20
-707.3047005077
 10
774.5968297177
 20
-701.8219743563
 10
781.2110095459
 20
-696.0928206027
 10
787.7607411565
 20
-690.1247955655
 10
794.2373859511
 20
-683.9257706166
 10
800.632401727
 20
-677.5039217992
 10
806.9373539439
 20
-670.8677190442
 10
813.1439268488
 20
-664.0259149991
 10
819.2439344432
 20
-656.9875334838
 10
825.2293312804
 20
-649.7618575892
 10
831.0922230764
 20
-642.3584174329
 10
836.8248771222
 20
-634.7869775903
 10
842.4197324825
 20
-627.0575242157
 10
847.8694099679
 20
-619.1802518711
 10
853.1667218676
 20
-611.1655500805
 10
858.3046814295
 20
-603.0239896269
 10
863.2765120751
 20
-594.7663086103
 10
868.0756563373
 20
-586.403398285
 10
872.6957845094
 20
-577.9462886944
 10
877.1308029931
 20
-569.4061341241
 10
881.3748623357
 20
-560.7941983893
 10
885.4223649454
 20
-552.1218399793
 10
889.2679724735
 20
-543.4004970763
 10
892.9066128557
 20
-534.6416724692
 10
896.3334870018
 20
-525.8569183826
 10
899.5440751248
 20
-517.0578212401
 10
902.5341427029
 20
-508.2559863825
 10
905.2997460641
 20
-499.4630227616
 10
907.8372375875
 20
-490.6905276288
 10
910.1432705144
 20
-481.9500712389
 10
912.2148033626
 20
-473.2531815903
 10
914.0491039375
 20
-464.6113292198
 10
915.6437529361
 20
-456.0359120745
 10
916.9966471372
 20
-447.5382404785
 10
918.1060021763
 20
-439.1295222152
 10
918.9703548983
 20
-430.8208477456
 10
919.5885652876
 20
-422.6231755802
 10
919.9598179715
 20
-414.5473178262
 10
920.0836232961
 20
-406.6039259267
  0
ARC
  5
188
330
1F
100
AcDbEntity
  8
0
  6
Continuous
 62
     7
370
    25
100
AcDbCircle
 10
646.1237708848
 20
-665.9746465814
 30
0.0
 40
92.56116952388888
100
AcDbArc
 50
213.9522259515
 51
266.0680480028
  0
ARC
  5
189
330
1F
100
AcDbEntity
  8
0
  6
Continuous
 62
     7
370
    25
100
AcDbCircle
 10
820.0161227008
 20
-364.7195271851
 30
0.0
 40
92.47094106359968
100
AcDbArc
 50
34.7614775612
 51
85.9910204463
  0
ARC
  5
18A
330
1F
100
AcDbEntity
  8
0
  6
Continuous
 62
     7
370
    25
100
AcDbCircle
 10
846.8647355444
 20
-382.4261506985
 30
0.0
 40
94.44745983082898
100
AcDbArc
 50
34.1249316171
 51
59.6569661066
  0
ARC
  5
18B
330
1F
100
AcDbEntity
  8
0
  6
Continuous
 62
     7
370
    25
100
AcDbCircle
 10
674.8860976575
 20
-680.2372644009
 30
0.0
 40
94.65497218264659
100
AcDbArc
 50
240.3769792214
 51
265.8462482736
  0
LWPOLYLINE
  5
18C
330
1F
100
AcDbEntity
  8
0
  6
Continuous
 62
     7
370
    25
100
AcDbPolyline
 90
       42
 70
   128
 43
0.0
 10
597.324274365
 20
-495.7197483703
 10
597.1978977398
 20
-497.6935306928
 10
596.8217300251
 20
-499.7669605762
 10
596.2045882734
 20
-501.8914385815
 10
595.3609377643
 20
-504.0171687447
 10
594.3105529505
 20
-506.0943257526
 10
593.078053962
 20
-508.0742228054
 10
591.6923295304
 20
-509.9104527943
 10
590.1858598618
 20
-511.5599760446
 10
588.5939553286
 20
-512.9841291295
 10
586.9539288236
 20
-514.1495311076
 10
585.3042211782
 20
-515.0288659445
 10
583.6835001413
 20
-515.6015227766
 10
582.1297540404
 20
-515.8540790134
 10
580.6794013672
 20
-515.7806149507
 10
579.3664371591
 20
-515.3828525237
 10
578.2216361843
 20
-514.6701149468
 10
577.2718316074
 20
-513.6591081845
 10
576.5392860426
 20
-512.3735293786
 10
576.0411697372
 20
-510.8435114066
 10
575.789158115
 20
-509.1049165929
 10
575.789158115
 20
-507.1984961266
 10
576.0411697372
 20
-505.1689348875
 10
576.5392860426
 20
-503.0638040708
 10
577.2718316074
 20
-500.9324461587
 10
578.2216361843
 20
-498.8248183742
 10
579.3664371591
 20
-496.7903217261
 10
580.6794013672
 20
-494.8766430917
 10
582.1297540404
 20
-493.1286374761
 10
583.6835001413
 20
-491.5872766494
 10
585.3042211782
 20
-490.288688803
 10
586.9539288236
 20
-489.2633117353
 10
588.5939553286
 20
-488.5351794158
 10
590.1858598618
 20
-488.1213586489
 10
591.6923295304
 20
-488.0315490427
 10
593.078053962
 20
-488.2678556581
 10
594.3105529505
 20
-488.8247396685
 10
595.3609377643
 20
-489.6891481845
 10
596.2045882734
 20
-490.8408202033
 10
596.8217300251
 20
-492.2527615088
 10
597.1978977398
 20
-493.8918773935
 10
597.324274365
 20
-495.7197483703
  0
LWPOLYLINE
  5
18D
330
1F
100
AcDbEntity
  8
0
  6
Continuous
 62
     7
370
    25
100
AcDbPolyline
 90
       42
 70
   128
 43
0.0
 10
597.324274365
 20
-690.1381156803
 10
597.1978977398
 20
-692.1118980028
 10
596.8217300251
 20
-694.1853278862
 10
596.2045882734
 20
-696.3098058915
 10
595.3609377643
 20
-698.4355360547
 10
594.3105529505
 20
-700.5126930626
 10
593.078053962
 20
-702.4925901154
 10
591.6923295304
 20
-704.3288201043
 10
590.1858598618
 20
-705.9783433546
 10
588.5939553285
 20
-707.4024964395
 10
586.9539288236
 20
-708.5678984177
 10
585.3042211782
 20
-709.4472332545
 10
583.6835001413
 20
-710.0198900866
 10
582.1297540404
 20
-710.2724463234
 10
580.6794013672
 20
-710.1989822607
 10
579.3664371591
 20
-709.8012198337
 10
578.2216361843
 20
-709.0884822568
 10
577.2718316074
 20
-708.0774754945
 10
576.5392860426
 20
-706.7918966886
 10
576.0411697372
 20
-705.2618787166
 10
575.789158115
 20
-703.523283903
 10
575.789158115
 20
-701.6168634366
 10
576.0411697372
 20
-699.5873021975
 10
576.5392860426
 20
-697.4821713808
 10
577.2718316074
 20
-695.3508134687
 10
578.2216361843
 20
-693.2431856842
 10
579.3664371591
 20
-691.2086890362
 10
580.6794013672
 20
-689.2950104017
 10
582.1297540404
 20
-687.5470047861
 10
583.6835001413
 20
-686.0056439594
 10
585.3042211782
 20
-684.707056113
 10
586.9539288236
 20
-683.6816790453
 10
588.5939553285
 20
-682.9535467258
 10
590.1858598618
 20
-682.5397259589
 10
591.6923295304
 20
-682.4499163527
 10
593.078053962
 20
-682.6862229681
 10
594.3105529505
 20
-683.2431069785
 10
595.3609377643
 20
-684.1075154945
 10
596.2045882734
 20
-685.2591875133
 10
596.8217300251
 20
-686.6711288188
 10
597.1978977398
 20
-688.3102447035
 10
597.324274365
 20
-690.1381156803
  0
LWPOLYLINE
  5
18E
330
1F
100
AcDbEntity
  8
0
  6
Continuous
 62
     7
370
    25
100
AcDbPolyline
 90
       42
 70
   128
 43
0.0
 10
743.1301513042
 20
-703.1753582285
 10
743.003774679
 20
-705.149140551
 10
742.6276069643
 20
-707.2225704344
 10
742.0104652126
 20
-709.3470484397
 10
741.1668147034
 20
-711.4727786029
 10
740.1164298897
 20
-713.5499356108
 10
738.8839309012
 20
-715.5298326636
 10
737.4982064696
 20
-717.3660626525
 10
735.991736801
 20
-719.0155859028
 10
734.3998322677
 20
-720.4397389877
 10
732.7598057627
 20
-721.6051409658
 10
731.1100981173
 20
-722.4844758026
 10
729.4893770804
 20
-723.0571326348
 10
727.9356309796
 20
-723.3096888716
 10
726.4852783064
 20
-723.2362248088
 10
725.1723140983
 20
-722.8384623819
 10
724.0275131235
 20
-722.1257248049
 10
723.0777085466
 20
-721.1147180427
 10
722.3451629818
 20
-719.8291392367
 10
721.8470466763
 20
-718.2991212647
 10
721.5950350542
 20
-716.5605264511
 10
721.5950350542
 20
-714.6541059848
 10
721.8470466763
 20
-712.6245447456
 10
722.3451629818
 20
-710.519413929
 10
723.0777085466
 20
-708.3880560168
 10
724.0275131235
 20
-706.2804282323
 10
725.1723140983
 20
-704.2459315843
 10
726.4852783064
 20
-702.3322529499
 10
727.9356309796
 20
-700.5842473343
 10
729.4893770804
 20
-699.0428865076
 10
731.1100981173
 20
-697.7442986611
 10
732.7598057627
 20
-696.7189215935
 10
734.3998322677
 20
-695.990789274
 10
735.991736801
 20
-695.5769685071
 10
737.4982064696
 20
-695.4871589009
 10
738.8839309012
 20
-695.7234655163
 10
740.1164298897
 20
-696.2803495267
 10
741.1668147034
 20
-697.1447580427
 10
742.0104652126
 20
-698.2964300615
 10
742.6276069643
 20
-699.708371367
 10
743.003774679
 20
-701.3474872517
 10
743.1301513042
 20
-703.1753582285
  0
LWPOLYLINE
  5
18F
330
1F
100
AcDbEntity
  8
0
  6
Continuous
 62
     7
370
    25
100
AcDbPolyline
 90
       42
 70
   128
 43
0.0
 10
911.4922759047
 20
-411.563605206
 10
911.3658992795
 20
-413.5373875285
 10
910.9897315648
 20
-415.6108174119
 10
910.3725898131
 20
-417.7352954172
 10
909.528939304
 20
-419.8610255804
 10
908.4785544902
 20
-421.9381825883
 10
907.2460555017
 20
-423.9180796411
 10
905.8603310701
 20
-425.75430963
 10
904.3538614015
 20
-427.4038328803
 10
902.7619568682
 20
-428.8279859652
 10
901.1219303633
 20
-429.9933879433
 10
899.4722227179
 20
-430.8727227801
 10
897.851501681
 20
-431.4453796123
 10
896.2977555801
 20
-431.6979358491
 10
894.8474029069
 20
-431.6244717863
 10
893.5344386988
 20
-431.2267093594
 10
892.389637724
 20
-430.5139717824
 10
891.4398331471
 20
-429.5029650202
 10
890.7072875823
 20
-428.2173862143
 10
890.2091712769
 20
-426.6873682422
 10
889.9571596547
 20
-424.9487734286
 10
889.9571596547
 20
-423.0423529623
 10
890.2091712769
 20
-421.0127917231
 10
890.7072875823
 20
-418.9076609065
 10
891.4398331471
 20
-416.7763029943
 10
892.389637724
 20
-414.6686752098
 10
893.5344386988
 20
-412.6341785618
 10
894.8474029069
 20
-410.7204999274
 10
896.2977555801
 20
-408.9724943118
 10
897.851501681
 20
-407.4311334851
 10
899.4722227179
 20
-406.1325456386
 10
901.1219303633
 20
-405.107168571
 10
902.7619568682
 20
-404.3790362515
 10
904.3538614015
 20
-403.9652154846
 10
905.8603310701
 20
-403.8754058784
 10
907.2460555017
 20
-404.1117124938
 10
908.4785544902
 20
-404.6685965042
 10
909.528939304
 20
-405.5330050202
 10
910.3725898131
 20
-406.684677039
 10
910.9897315648
 20
-408.0966183445
 10
911.3658992795
 20
-409.7357342292
 10
911.4922759047
 20
-411.563605206
  0
LWPOLYLINE
  5
190
330
1F
100
AcDbEntity
  8
0
  6
Continuous
 62
     7
370
    25
100
AcDbPolyline
 90
       42
 70
   128
 43
0.0
 10
827.3112136045
 20
-291.7890530095
 10
827.1848369793
 20
-293.762835332
 10
826.8086692646
 20
-295.8362652154
 10
826.1915275129
 20
-297.9607432206
 10
825.3478770037
 20
-300.0864733839
 10
824.29749219
 20
-302.1636303918
 10
823.0649932015
 20
-304.1435274446
 10
821.6792687698
 20
-305.9797574335
 10
820.1727991013
 20
-307.6292806838
 10
818.580894568
 20
-309.0534337687
 10
816.940868063
 20
-310.2188357468
 10
815.2911604176
 20
-311.0981705836
 10
813.6704393807
 20
-311.6708274158
 10
812.1166932798
 20
-311.9233836526
 10
810.6663406066
 20
-311.8499195898
 10
809.3533763985
 20
-311.4521571629
 10
808.2085754237
 20
-310.7394195859
 10
807.2587708468
 20
-309.7284128237
 10
806.5262252821
 20
-308.4428340177
 10
806.0281089766
 20
-306.9128160457
 10
805.7760973545
 20
-305.1742212321
 10
805.7760973545
 20
-303.2678007658
 10
806.0281089766
 20
-301.2382395266
 10
806.5262252821
 20
-299.1331087099
 10
807.2587708468
 20
-297.0017507978
 10
808.2085754237
 20
-294.8941230133
 10
809.3533763985
 20
-292.8596263653
 10
810.6663406066
 20
-290.9459477309
 10
812.1166932798
 20
-289.1979421153
 10
813.6704393807
 20
-287.6565812886
 10
815.2911604176
 20
-286.3579934421
 10
816.940868063
 20
-285.3326163745
 10
818.580894568
 20
-284.604484055
 10
820.1727991013
 20
-284.1906632881
 10
821.6792687698
 20
-284.1008536818
 10
823.0649932015
 20
-284.3371602973
 10
824.29749219
 20
-284.8940443076
 10
825.3478770037
 20
-285.7584528237
 10
826.1915275129
 20
-286.9101248425
 10
826.8086692646
 20
-288.3220661479
 10
827.1848369793
 20
-289.9611820326
 10
827.3112136045
 20
-291.7890530095
  0
LWPOLYLINE
  5
191
330
1F
100
AcDbEntity
  8
0
  6
Continuous
 62
     7
370
    25
100
AcDbPolyline
 90
       42
 70
   128
 43
0.0
 10
743.1301513042
 20
-314.3386236085
 10
743.003774679
 20
-316.312405931
 10
742.6276069643
 20
-318.3858358144
 10
742.0104652126
 20
-320.5103138196
 10
741.1668147034
 20
-322.6360439829
 10
740.1164298897
 20
-324.7132009908
 10
738.8839309012
 20
-326.6930980436
 10
737.4982064696
 20
-328.5293280325
 10
735.991736801
 20
-330.1788512828
 10
734.3998322677
 20
-331.6030043677
 10
732.7598057628
 20
-332.7684063458
 10
731.1100981173
 20
-333.6477411826
 10
729.4893770805
 20
-334.2203980148
 10
727.9356309796
 20
-334.4729542516
 10
726.4852783064
 20
-334.3994901888
 10
725.1723140983
 20
-334.0017277619
 10
724.0275131235
 20
-333.2889901849
 10
723.0777085466
 20
-332.2779834227
 10
722.3451629818
 20
-330.9924046167
 10
721.8470466763
 20
-329.4623866447
 10
721.5950350542
 20
-327.7237918311
 10
721.5950350542
 20
-325.8173713648
 10
721.8470466763
 20
-323.7878101256
 10
722.3451629818
 20
-321.6826793089
 10
723.0777085466
 20
-319.5513213968
 10
724.0275131235
 20
-317.4436936123
 10
725.1723140983
 20
-315.4091969643
 10
726.4852783064
 20
-313.4955183299
 10
727.9356309796
 20
-311.7475127143
 10
729.4893770805
 20
-310.2061518876
 10
731.1100981173
 20
-308.9075640411
 10
732.7598057628
 20
-307.8821869735
 10
734.3998322677
 20
-307.154054654
 10
735.991736801
 20
-306.7402338871
 10
737.4982064696
 20
-306.6504242808
 10
738.8839309012
 20
-306.8867308963
 10
740.1164298897
 20
-307.4436149066
 10
741.1668147034
 20
-308.3080234227
 10
742.0104652126
 20
-309.4596954415
 10
742.6276069643
 20
-310.8716367469
 10
743.003774679
 20
-312.5107526316
 10
743.1301513042
 20
-314.3386236085
  0
LWPOLYLINE
  5
192
330
1F
100
AcDbEntity
  8
0
  6
Continuous
 62
     7
370
    25
100
AcDbPolyline
 90
      146
 70
   128
 43
0.0
 10
865.9899545354
 20
-437.8315362039
 10
865.8645039807
 20
-444.5891763841
 10
865.4883878368
 20
-451.4789719284
 10
864.8623122226
 20
-458.4879879656
 10
863.9874525296
 20
-465.6030658004
 10
862.8654512154
 20
-472.8108476175
 10
861.4984147203
 20
-480.0978015599
 10
859.8889095124
 20
-487.4502471327
 10
858.0399572697
 20
-494.8543808878
 10
855.9550292067
 20
-502.2963023376
 10
853.6380395581
 20
-509.7620400522
 10
851.0933382297
 20
-517.2375778891
 10
848.3257026326
 20
-524.7088813072
 10
845.3403287132
 20
-532.1619237149
 10
842.1428211992
 20
-539.5827128038
 10
838.7391830769
 20
-546.9573168179
 10
835.1358043213
 20
-554.2718907087
 10
831.3394498993
 20
-561.5127021279
 10
827.3572470698
 20
-568.6661572086
 10
823.1966720024
 20
-575.7188260866
 10
818.8655357422
 20
-582.6574681127
 10
814.3719695449
 20
-589.4690567117
 10
809.7244096116
 20
-596.1408038376
 10
804.9315812503
 20
-602.6601839824
 10
800.0024824956
 20
-609.0149576911
 10
794.9463672153
 20
-615.1931945399
 10
789.7727277375
 20
-621.1832955348
 10
784.4912770299
 20
-626.974014887
 10
779.1119304642
 20
-632.554481126
 10
773.6447872015
 20
-637.9142175095
 10
768.1001112322
 20
-643.0431616926
 10
762.4883121059
 20
-647.9316846184
 10
756.8199253891
 20
-652.5706085958
 10
751.1055928857
 20
-656.95122453
 10
745.3560426578
 20
-661.0653082721
 10
739.5820688852
 20
-664.9051360598
 10
733.7945116004
 20
-668.4634990176
 10
728.0042363375
 20
-671.733716691
 10
722.2221137332
 20
-674.7096495879
 10
716.4589991185
 20
-677.3857107052
 10
710.725712139
 20
-679.7568760179
 10
705.033016442
 20
-681.8186939107
 10
699.3915994687
 20
-683.5672935361
 10
693.8120523901
 20
-684.999392081
 10
688.3048502229
 20
-686.11230093
 10
682.8803321636
 20
-686.9039307129
 10
677.5486821781
 20
-687.3727952277
 10
672.3199098821
 20
-687.5180142301
 10
667.2038317495
 20
-687.3393150867
 10
662.2100526821
 20
-686.8370332864
 10
657.3479479785
 20
-686.0121118108
 10
652.6266457322
 20
-684.8660993639
 10
648.0550096948
 20
-683.4011474641
 10
643.6416226354
 20
-681.6200064058
 10
639.3947702269
 20
-679.526020095
 10
635.3224254911
 20
-677.1231197722
 10
631.4322338297
 20
-674.4158166319
 10
627.731498671
 20
-671.4091933527
 10
624.2271677586
 20
-668.1088945556
 10
620.9258201076
 20
-664.5211162069
 10
617.8336536534
 20
-660.6525939855
 10
614.9564736152
 20
-656.5105906376
 10
612.2996815981
 20
-652.1028823418
 10
609.8682654515
 20
-647.4377441098
 10
607.666789905
 20
-642.5239342512
 10
605.699387999
 20
-637.3706779306
 10
603.969753325
 20
-631.9876498483
 10
602.4811330914
 20
-626.384956077
 10
601.2363220271
 20
-620.5731150889
 10
600.2376571349
 20
-614.5630380081
 10
599.4870133037
 20
-608.3660081265
 10
598.9857997889
 20
-601.99365972
 10
598.7349575664
 20
-595.457956207
 10
598.7349575664
 20
-588.771167688
 10
598.9857997889
 20
-581.9458479096
 10
599.4870133037
 20
-574.9948106967
 10
600.2376571349
 20
-567.9311058952
 10
601.2363220271
 20
-560.7679948729
 10
602.4811330914
 20
-553.5189256222
 10
603.969753325
 20
-546.1975075133
 10
605.699387999
 20
-538.8174857436
 10
607.666789905
 20
-531.3927155329
 10
609.8682654515
 20
-523.9371361114
 10
612.2996815981
 20
-516.4647445505
 10
614.9564736152
 20
-508.9895694846
 10
617.8336536534
 20
-501.5256447738
 10
620.9258201076
 20
-494.0869831569
 10
624.2271677586
 20
-486.6875499437
 10
627.731498671
 20
-479.3412367971
 10
631.4322338297
 20
-472.0618356522
 10
635.3224254911
 20
-464.8630128243
 10
639.3947702269
 20
-457.7582833508
 10
643.6416226354
 20
-450.7609856191
 10
648.0550096948
 20
-443.8842563246
 10
652.6266457322
 20
-437.1410058079
 10
657.3479479785
 20
-430.5438938172
 10
662.2100526821
 20
-424.1053057411
 10
667.2038317495
 20
-417.8373293559
 10
672.3199098822
 20
-411.7517321324
 10
677.5486821781
 20
-405.8599391433
 10
682.8803321636
 20
-400.1730116146
 10
688.3048502229
 20
-394.7016261583
 10
693.8120523901
 20
-389.456054729
 10
699.3915994687
 20
-384.4461453389
 10
705.033016442
 20
-379.6813035695
 10
710.725712139
 20
-375.1704749132
 10
716.4589991185
 20
-370.9221279797
 10
722.2221137332
 20
-366.9442385962
 10
728.0042363375
 20
-363.2442748346
 10
733.7945116004
 20
-359.8291829902
 10
739.5820688852
 20
-356.7053745411
 10
745.3560426578
 20
-353.8787141112
 10
751.1055928857
 20
-351.3545084601
 10
756.8199253891
 20
-349.1374965202
 10
762.4883121059
 20
-347.2318404998
 10
768.1001112322
 20
-345.641118069
 10
773.6447872015
 20
-344.3683156428
 10
779.1119304642
 20
-343.4158227749
 10
784.4912770299
 20
-342.7854276711
 10
789.7727277375
 20
-342.4783138323
 10
794.9463672153
 20
-342.4950578326
 10
800.0024824956
 20
-342.835628237
 10
804.9315812503
 20
-343.4993856601
 10
809.7244096116
 20
-344.4850839667
 10
814.3719695449
 20
-345.7908726112
 10
818.8655357422
 20
-347.414300112
 10
823.1966720024
 20
-349.3523186533
 10
827.3572470698
 20
-351.6012898081
 10
831.3394498993
 20
-354.1569913678
 10
835.1358043213
 20
-357.01462527
 10
838.7391830769
 20
-360.1688266054
 10
842.1428211992
 20
-363.6136736907
 10
845.3403287132
 20
-367.3426991855
 10
848.3257026326
 20
-371.3489022339
 10
851.0933382297
 20
-375.6247616084
 10
853.6380395581
 20
-380.1622498298
 10
855.9550292067
 20
-384.952848238
 10
858.0399572697
 20
-389.9875629851
 10
859.8889095124
 20
-395.2569419203
 10
861.4984147203
 20
-400.7510923351
 10
862.8654512154
 20
-406.4596995362
 10
863.9874525296
 20
-412.3720462101
 10
864.8623122226
 20
-418.4770325437
 10
865.4883878368
 20
-424.763197063
 10
865.8645039807
 20
-431.2187381511
 10
865.9899545354
 20
-437.8315362039
  0
LWPOLYLINE
  5
193
330
1F
100
AcDbEntity
  8
0
  6
Continuous
 62
     7
370
    25
100
AcDbPolyline
 90
       42
 70
   128
 43
0.0
 10
888.9360282434
 20
-521.7942334666
 10
888.8096516182
 20
-523.7680157891
 10
888.4334839035
 20
-525.8414456726
 10
887.8163421518
 20
-527.9659236778
 10
886.9726916426
 20
-530.0916538411
 10
885.9223068289
 20
-532.168810849
 10
884.6898078404
 20
-534.1487079018
 10
883.3040834087
 20
-535.9849378906
 10
881.7976137402
 20
-537.634461141
 10
880.2057092069
 20
-539.0586142258
 10
878.5656827019
 20
-540.224016204
 10
876.9159750565
 20
-541.1033510408
 10
875.2952540196
 20
-541.676007873
 10
873.7415079187
 20
-541.9285641098
 10
872.2911552455
 20
-541.855100047
 10
870.9781910374
 20
-541.4573376201
 10
869.8333900627
 20
-540.7446000431
 10
868.8835854857
 20
-539.7335932808
 10
868.151039921
 20
-538.4480144749
 10
867.6529236155
 20
-536.9179965029
 10
867.4009119934
 20
-535.1794016893
 10
867.4009119934
 20
-533.2729812229
 10
867.6529236155
 20
-531.2434199838
 10
868.151039921
 20
-529.1382891671
 10
868.8835854857
 20
-527.006931255
 10
869.8333900627
 20
-524.8993034705
 10
870.9781910374
 20
-522.8648068225
 10
872.2911552455
 20
-520.9511281881
 10
873.7415079187
 20
-519.2031225724
 10
875.2952540196
 20
-517.6617617457
 10
876.9159750565
 20
-516.3631738993
 10
878.5656827019
 20
-515.3377968316
 10
880.2057092069
 20
-514.6096645122
 10
881.7976137402
 20
-514.1958437453
 10
883.3040834087
 20
-514.106034139
 10
884.6898078404
 20
-514.3423407545
 10
885.9223068289
 20
-514.8992247648
 10
886.9726916426
 20
-515.7636332809
 10
887.8163421518
 20
-516.9153052996
 10
888.4334839035
 20
-518.3272466051
 10
888.8096516182
 20
-519.9663624898
 10
888.9360282434
 20
-521.7942334666
  0
LWPOLYLINE
  5
194
330
1F
100
AcDbEntity
  8
0
  6
Continuous
 62
     7
370
    25
100
AcDbPolyline
 90
       42
 70
   128
 43
0.0
 10
888.9360282434
 20
-327.3758661566
 10
888.8096516182
 20
-329.3496484791
 10
888.4334839035
 20
-331.4230783626
 10
887.8163421518
 20
-333.5475563678
 10
886.9726916426
 20
-335.673286531
 10
885.9223068289
 20
-337.7504435389
 10
884.6898078404
 20
-339.7303405918
 10
883.3040834087
 20
-341.5665705806
 10
881.7976137402
 20
-343.216093831
 10
880.2057092069
 20
-344.6402469158
 10
878.5656827019
 20
-345.805648894
 10
876.9159750565
 20
-346.6849837308
 10
875.2952540196
 20
-347.257640563
 10
873.7415079187
 20
-347.5101967997
 10
872.2911552455
 20
-347.436732737
 10
870.9781910374
 20
-347.03897031
 10
869.8333900627
 20
-346.3262327331
 10
868.8835854857
 20
-345.3152259708
 10
868.151039921
 20
-344.0296471649
 10
867.6529236155
 20
-342.4996291929
 10
867.4009119934
 20
-340.7610343793
 10
867.4009119934
 20
-338.8546139129
 10
867.6529236155
 20
-336.8250526738
 10
868.151039921
 20
-334.7199218571
 10
868.8835854857
 20
-332.588563945
 10
869.8333900627
 20
-330.4809361605
 10
870.9781910374
 20
-328.4464395125
 10
872.2911552455
 20
-326.532760878
 10
873.7415079187
 20
-324.7847552624
 10
875.2952540196
 20
-323.2433944357
 10
876.9159750565
 20
-321.9448065893
 10
878.5656827019
 20
-320.9194295216
 10
880.2057092069
 20
-320.1912972021
 10
881.7976137402
 20
-319.7774764353
 10
883.3040834087
 20
-319.687666829
 10
884.6898078404
 20
-319.9239734445
 10
885.9223068289
 20
-320.4808574548
 10
886.9726916426
 20
-321.3452659709
 10
887.8163421518
 20
-322.4969379896
 10
888.4334839035
 20
-323.9088792951
 10
888.8096516182
 20
-325.5479951798
 10
888.9360282434
 20
-327.3758661566
  0
LWPOLYLINE
  5
195
330
1F
100
AcDbEntity
  8
0
  6
Continuous
 62
     7
370
    25
100
AcDbPolyline
 90
       42
 70
   128
 43
0.0
 10
827.3112136045
 20
-628.531543115
 10
827.1848369792
 20
-630.5053254375
 10
826.8086692646
 20
-632.5787553209
 10
826.1915275129
 20
-634.7032333262
 10
825.3478770037
 20
-636.8289634894
 10
824.29749219
 20
-638.9061204973
 10
823.0649932015
 20
-640.8860175501
 10
821.6792687698
 20
-642.722247539
 10
820.1727991013
 20
-644.3717707893
 10
818.580894568
 20
-645.7959238742
 10
816.940868063
 20
-646.9613258523
 10
815.2911604176
 20
-647.8406606891
 10
813.6704393807
 20
-648.4133175213
 10
812.1166932798
 20
-648.6658737581
 10
810.6663406066
 20
-648.5924096953
 10
809.3533763985
 20
-648.1946472684
 10
808.2085754237
 20
-647.4819096914
 10
807.2587708468
 20
-646.4709029292
 10
806.5262252821
 20
-645.1853241233
 10
806.0281089766
 20
-643.6553061512
 10
805.7760973544
 20
-641.9167113376
 10
805.7760973544
 20
-640.0102908713
 10
806.0281089766
 20
-637.9807296321
 10
806.5262252821
 20
-635.8755988155
 10
807.2587708468
 20
-633.7442409034
 10
808.2085754237
 20
-631.6366131188
 10
809.3533763985
 20
-629.6021164708
 10
810.6663406066
 20
-627.6884378364
 10
812.1166932798
 20
-625.9404322208
 10
813.6704393807
 20
-624.3990713941
 10
815.2911604176
 20
-623.1004835476
 10
816.940868063
 20
-622.07510648
 10
818.580894568
 20
-621.3469741605
 10
820.1727991013
 20
-620.9331533936
 10
821.6792687698
 20
-620.8433437874
 10
823.0649932015
 20
-621.0796504028
 10
824.29749219
 20
-621.6365344132
 10
825.3478770037
 20
-622.5009429292
 10
826.1915275129
 20
-623.652614948
 10
826.8086692646
 20
-625.0645562535
 10
827.1848369792
 20
-626.7036721382
 10
827.3112136045
 20
-628.531543115
  0
LWPOLYLINE
  5
196
330
1F
100
AcDbEntity
  8
0
  6
Continuous
 62
     7
370
    25
100
AcDbPolyline
 90
       42
 70
   128
 43
0.0
 10
658.9490890039
 20
-725.7249288275
 10
658.8227123787
 20
-727.69871115
 10
658.4465446641
 20
-729.7721410334
 10
657.8294029123
 20
-731.8966190387
 10
656.9857524032
 20
-734.0223492019
 10
655.9353675894
 20
-736.0995062098
 10
654.7028686009
 20
-738.0794032626
 10
653.3171441693
 20
-739.9156332515
 10
651.8106745007
 20
-741.5651565018
 10
650.2187699675
 20
-742.9893095867
 10
648.5787434625
 20
-744.1547115648
 10
646.9290358171
 20
-745.0340464016
 10
645.3083147802
 20
-745.6067032338
 10
643.7545686793
 20
-745.8592594706
 10
642.3042160061
 20
-745.7857954078
 10
640.991251798
 20
-745.3880329809
 10
639.8464508232
 20
-744.6752954039
 10
638.8966462463
 20
-743.6642886417
 10
638.1641006815
 20
-742.3787098357
 10
637.6659843761
 20
-740.8486918637
 10
637.4139727539
 20
-739.1100970501
 10
637.4139727539
 20
-737.2036765838
 10
637.6659843761
 20
-735.1741153446
 10
638.1641006815
 20
-733.0689845279
 10
638.8966462463
 20
-730.9376266158
 10
639.8464508232
 20
-728.8299988313
 10
640.991251798
 20
-726.7955021833
 10
642.3042160061
 20
-724.8818235489
 10
643.7545686793
 20
-723.1338179333
 10
645.3083147802
 20
-721.5924571066
 10
646.9290358171
 20
-720.2938692601
 10
648.5787434625
 20
-719.2684921925
 10
650.2187699675
 20
-718.540359873
 10
651.8106745007
 20
-718.1265391061
 10
653.3171441693
 20
-718.0367294999
 10
654.7028686009
 20
-718.2730361153
 10
655.9353675894
 20
-718.8299201257
 10
656.9857524032
 20
-719.6943286417
 10
657.8294029123
 20
-720.8460006605
 10
658.4465446641
 20
-722.257941966
 10
658.8227123787
 20
-723.8970578507
 10
658.9490890039
 20
-725.7249288275
  0
LWPOLYLINE
  5
197
330
1F
100
AcDbEntity
  8
0
  6
Continuous
 62
     7
370
    25
100
AcDbPolyline
 90
       42
 70
   128
 43
0.0
 10
574.7680267037
 20
-605.950376631
 10
574.6416500785
 20
-607.9241589535
 10
574.2654823638
 20
-609.9975888369
 10
573.6483406121
 20
-612.1220668421
 10
572.8046901029
 20
-614.2477970054
 10
571.7543052892
 20
-616.3249540133
 10
570.5218063007
 20
-618.3048510661
 10
569.136081869
 20
-620.141081055
 10
567.6296122005
 20
-621.7906043053
 10
566.0377076672
 20
-623.2147573902
 10
564.3976811622
 20
-624.3801593683
 10
562.7479735168
 20
-625.2594942051
 10
561.1272524799
 20
-625.8321510373
 10
559.573506379
 20
-626.0847072741
 10
558.1231537058
 20
-626.0112432113
 10
556.8101894977
 20
-625.6134807844
 10
555.665388523
 20
-624.9007432074
 10
554.715583946
 20
-623.8897364452
 10
553.9830383813
 20
-622.6041576392
 10
553.4849220758
 20
-621.0741396672
 10
553.2329104537
 20
-619.3355448536
 10
553.2329104537
 20
-617.4291243873
 10
553.4849220758
 20
-615.3995631481
 10
553.9830383813
 20
-613.2944323314
 10
554.715583946
 20
-611.1630744193
 10
555.665388523
 20
-609.0554466348
 10
556.8101894977
 20
-607.0209499868
 10
558.1231537058
 20
-605.1072713524
 10
559.573506379
 20
-603.3592657368
 10
561.1272524799
 20
-601.81790491
 10
562.7479735168
 20
-600.5193170636
 10
564.3976811622
 20
-599.493939996
 10
566.0377076672
 20
-598.7658076765
 10
567.6296122005
 20
-598.3519869096
 10
569.136081869
 20
-598.2621773033
 10
570.5218063007
 20
-598.4984839188
 10
571.7543052892
 20
-599.0553679291
 10
572.8046901029
 20
-599.9197764452
 10
573.6483406121
 20
-601.071448464
 10
574.2654823638
 20
-602.4833897694
 10
574.6416500785
 20
-604.1225056541
 10
574.7680267037
 20
-605.950376631
  0
LWPOLYLINE
  5
198
330
1F
100
AcDbEntity
  8
0
  6
Continuous
 62
     7
370
    25
100
AcDbPolyline
 90
       42
 70
   128
 43
0.0
 10
658.9490890039
 20
-388.982438722
 10
658.8227123787
 20
-390.9562210445
 10
658.4465446641
 20
-393.0296509279
 10
657.8294029123
 20
-395.1541289331
 10
656.9857524032
 20
-397.2798590964
 10
655.9353675895
 20
-399.3570161043
 10
654.7028686009
 20
-401.3369131571
 10
653.3171441693
 20
-403.173143146
 10
651.8106745007
 20
-404.8226663963
 10
650.2187699675
 20
-406.2468194812
 10
648.5787434625
 20
-407.4122214593
 10
646.9290358171
 20
-408.2915562961
 10
645.3083147802
 20
-408.8642131283
 10
643.7545686793
 20
-409.1167693651
 10
642.3042160061
 20
-409.0433053023
 10
640.991251798
 20
-408.6455428754
 10
639.8464508232
 20
-407.9328052984
 10
638.8966462463
 20
-406.9217985362
 10
638.1641006815
 20
-405.6362197302
 10
637.6659843761
 20
-404.1062017582
 10
637.4139727539
 20
-402.3676069446
 10
637.4139727539
 20
-400.4611864783
 10
637.6659843761
 20
-398.4316252391
 10
638.1641006815
 20
-396.3264944224
 10
638.8966462463
 20
-394.1951365103
 10
639.8464508232
 20
-392.0875087258
 10
640.991251798
 20
-390.0530120778
 10
642.3042160061
 20
-388.1393334434
 10
643.7545686793
 20
-386.3913278278
 10
645.3083147802
 20
-384.849967001
 10
646.9290358171
 20
-383.5513791546
 10
648.5787434625
 20
-382.526002087
 10
650.2187699675
 20
-381.7978697675
 10
651.8106745007
 20
-381.3840490006
 10
653.3171441693
 20
-381.2942393943
 10
654.7028686009
 20
-381.5305460098
 10
655.9353675895
 20
-382.0874300201
 10
656.9857524032
 20
-382.9518385362
 10
657.8294029123
 20
-384.1035105549
 10
658.4465446641
 20
-385.5154518604
 10
658.8227123787
 20
-387.1545677451
 10
658.9490890039
 20
-388.982438722
  0
ARC
  5
199
330
1F
100
AcDbEntity
  8
0
  6
Continuous
 62
     7
370
    25
100
AcDbCircle
 10
794.3283379057
 20
-409.2720245606
 30
0.0
 40
65.3994826287047
100
AcDbArc
 50
33.9752383988
 51
85.1422902953
  0
ARC
  5
19A
330
1F
100
AcDbEntity
  8
0
  6
Continuous
 62
     7
370
    25
100
AcDbCircle
 10
671.4527362982
 20
-622.0984984396
 30
0.0
 40
64.75813157785281
100
AcDbArc
 50
216.8224093567
 51
263.1961101553
  0
ARC
  5
19B
330
1F
100
AcDbEntity
  8
0
  6
Continuous
 62
     7
370
    25
100
AcDbCircle
 10
703.7966287331
 20
-634.7134310438
 30
0.0
 40
70.23618083753978
100
AcDbArc
 50
216.5434443442
 51
225.1626224451
  0
ARC
  5
19C
330
1F
100
AcDbEntity
  8
0
  6
Continuous
 62
     7
370
    25
100
AcDbCircle
 10
821.7881642048
 20
-430.183015532
 30
0.0
 40
70.03435657717264
100
AcDbArc
 50
74.8268686399
 51
83.8114625345
  0
LINE
  5
19D
330
1F
100
AcDbEntity
  8
0
  6
Continuous
 62
     7
370
    25
100
AcDbLine
 10
885.9841775815
 20
-516.0863530863
 30
0.0
 11
885.5565246403
 21
-515.867475334
 31
0.0
  0
LINE
  5
19E
330
1F
100
AcDbEntity
  8
0
  6
Continuous
 62
     7
370
    25
100
AcDbLine
 10
871.7353356414
 20
-540.7687456641
 30
0.0
 11
871.9170197414
 21
-540.8684124629
 31
0.0
  0
LINE
  5
19F
330
1F
100
AcDbEntity
  8
0
  6
Continuous
 62
     7
370
    25
100
AcDbLine
 10
824.3593629426
 20
-622.8236627346
 30
0.0
 11
823.9317100013
 21
-622.6047849824
 31
0.0
  0
LINE
  5
1A0
330
1F
100
AcDbEntity
  8
0
  6
Continuous
 62
     7
370
    25
100
AcDbLine
 10
810.1105210025
 20
-647.5060553125
 30
0.0
 11
810.2922051025
 21
-647.6057221113
 31
0.0
  0
LINE
  5
1A1
330
1F
100
AcDbEntity
  8
0
  6
Continuous
 62
     7
370
    25
100
AcDbLine
 10
908.5404252429
 20
-405.8557248256
 30
0.0
 11
908.1127723016
 21
-405.6368470734
 31
0.0
  0
LINE
  5
1A2
330
1F
100
AcDbEntity
  8
0
  6
Continuous
 62
     7
370
    25
100
AcDbLine
 10
894.2915833028
 20
-430.5381174035
 30
0.0
 11
894.4732674027
 21
-430.6377842023
 31
0.0
  0
LINE
  5
1A3
330
1F
100
AcDbEntity
  8
0
  6
Continuous
 62
     7
370
    25
100
AcDbLine
 10
740.1783006423
 20
-697.4674778481
 30
0.0
 11
739.7506477011
 21
-697.2486000959
 31
0.0
  0
LINE
  5
1A4
330
1F
100
AcDbEntity
  8
0
  6
Continuous
 62
     7
370
    25
100
AcDbLine
 10
725.9294587023
 20
-722.149870426
 30
0.0
 11
726.1111428022
 21
-722.2495372248
 31
0.0
  0
LINE
  5
1A5
330
1F
100
AcDbEntity
  8
0
  6
Continuous
 62
     7
370
    25
100
AcDbLine
 10
885.9841775815
 20
-321.6679857763
 30
0.0
 11
885.5565246403
 21
-321.449108024
 31
0.0
  0
LINE
  5
1A6
330
1F
100
AcDbEntity
  8
0
  6
Continuous
 62
     7
370
    25
100
AcDbLine
 10
871.7353356414
 20
-346.3503783541
 30
0.0
 11
871.9170197414
 21
-346.4500451529
 31
0.0
  0
LINE
  5
1A7
330
1F
100
AcDbEntity
  8
0
  6
Continuous
 62
     7
370
    25
100
AcDbLine
 10
655.9972383421
 20
-720.0170484471
 30
0.0
 11
655.5695854008
 21
-719.7981706949
 31
0.0
  0
LINE
  5
1A8
330
1F
100
AcDbEntity
  8
0
  6
Continuous
 62
     7
370
    25
100
AcDbLine
 10
641.748396402
 20
-744.699441025
 30
0.0
 11
641.930080502
 21
-744.7991078238
 31
0.0
  0
LINE
  5
1A9
330
1F
100
AcDbEntity
  8
0
  6
Continuous
 62
     7
370
    25
100
AcDbLine
 10
824.3593629426
 20
-286.0811726291
 30
0.0
 11
823.9317100014
 21
-285.8622948769
 31
0.0
  0
LINE
  5
1AA
330
1F
100
AcDbEntity
  8
0
  6
Continuous
 62
     7
370
    25
100
AcDbLine
 10
810.1105210025
 20
-310.763565207
 30
0.0
 11
810.2922051025
 21
-310.8632320058
 31
0.0
  0
LINE
  5
1AB
330
1F
100
AcDbEntity
  8
0
  6
Continuous
 62
     7
370
    25
100
AcDbLine
 10
594.3724237032
 20
-684.4302353
 30
0.0
 11
593.9447707619
 21
-684.2113575477
 31
0.0
  0
LINE
  5
1AC
330
1F
100
AcDbEntity
  8
0
  6
Continuous
 62
     7
370
    25
100
AcDbLine
 10
580.1235817631
 20
-709.1126278778
 30
0.0
 11
580.305265863
 21
-709.2122946766
 31
0.0
  0
LINE
  5
1AD
330
1F
100
AcDbEntity
  8
0
  6
Continuous
 62
     7
370
    25
100
AcDbLine
 10
740.1783006423
 20
-308.6307432281
 30
0.0
 11
739.7506477011
 21
-308.4118654758
 31
0.0
  0
LINE
  5
1AE
330
1F
100
AcDbEntity
  8
0
  6
Continuous
 62
     7
370
    25
100
AcDbLine
 10
725.9294587023
 20
-333.313135806
 30
0.0
 11
726.1111428022
 21
-333.4128026048
 31
0.0
  0
LINE
  5
1AF
330
1F
100
AcDbEntity
  8
0
  6
Continuous
 62
     7
370
    25
100
AcDbLine
 10
571.8161760418
 20
-600.2424962506
 30
0.0
 11
571.3885231006
 21
-600.0236184983
 31
0.0
  0
LINE
  5
1B0
330
1F
100
AcDbEntity
  8
0
  6
Continuous
 62
     7
370
    25
100
AcDbLine
 10
557.5673341017
 20
-624.9248888285
 30
0.0
 11
557.7490182017
 21
-625.0245556273
 31
0.0
  0
LINE
  5
1B1
330
1F
100
AcDbEntity
  8
0
  6
Continuous
 62
     7
370
    25
100
AcDbLine
 10
655.9972383421
 20
-383.2745583416
 30
0.0
 11
655.5695854008
 21
-383.0556805893
 31
0.0
  0
LINE
  5
1B2
330
1F
100
AcDbEntity
  8
0
  6
Continuous
 62
     7
370
    25
100
AcDbLine
 10
641.748396402
 20
-407.9569509194
 30
0.0
 11
641.930080502
 21
-408.0566177183
 31
0.0
  0
LINE
  5
1B3
330
1F
100
AcDbEntity
  8
0
  6
Continuous
 62
     7
370
    25
100
AcDbLine
 10
594.3724237032
 20
-490.0118679899
 30
0.0
 11
593.9447707619
 21
-489.7929902377
 31
0.0
  0
LINE
  5
1B4
330
1F
100
AcDbEntity
  8
0
  6
Continuous
 62
     7
370
    25
100
AcDbLine
 10
580.1235817631
 20
-514.6942605678
 30
0.0
 11
580.3052658631
 21
-514.7939273666
 31
0.0
  0
LWPOLYLINE
  5
1B5
330
1F
100
AcDbEntity
  8
0
  6
Continuous
 62
     1
370
    25
100
AcDbPolyline
 90
       59
 70
   128
 43
0.0
 10
921.4978368585
 20
-406.6039259267
 10
921.3735652238
 20
-414.5772364398
 10
921.0009142247
 20
-422.6835117371
 10
920.3803753594
 20
-430.9120602571
 10
919.5127670716
 20
-439.2520291692
 10
918.3992336707
 20
-447.6924186877
 10
917.0412438229
 20
-456.2220965798
 10
915.4405886134
 20
-464.829812848
 10
913.5993791851
 20
-473.5042145683
 10
911.5200439533
 20
-482.2338608635
 10
909.2053254033
 20
-491.007237993
 10
906.6582764731
 20
-499.8127745388
 10
903.8822565267
 20
-508.6388566667
 10
900.8809269238
 20
-517.4738434446
 10
897.6582461901
 20
-526.306082196
 10
894.2184647969
 20
-535.1239238686
 10
890.5661195544
 20
-543.9157383989
 10
886.7060276288
 20
-552.6699300511
 10
882.6432801882
 20
-561.3749527112
 10
878.383235688
 20
-570.0193251155
 10
873.9315128033
 20
-578.591645993
 10
869.2939830185
 20
-587.0806091036
 10
864.4767628833
 20
-595.4750181496
 10
859.4862059453
 20
-603.7638015429
 10
854.3288943699
 20
-611.9360270076
 10
849.0116302597
 20
-619.980915999
 10
843.5414266821
 20
-627.8878579193
 10
837.9254984203
 20
-635.6464241126
 10
832.1712524571
 20
-643.2463816194
 10
826.2862782061
 20
-650.6777066726
 10
820.2783375014
 20
-657.9305979191
 10
814.1553543605
 20
-664.9954893459
 10
807.9254045332
 20
-671.8630628978
 10
801.5967048503
 20
-678.5242607668
 10
795.177602386
 20
-684.9702973386
 10
788.6765634491
 20
-691.1926707807
 10
782.1021624162
 20
-697.1831742549
 10
775.4630704229
 20
-702.9339067421
 10
768.7680439276
 20
-708.4372834628
 10
762.0259131617
 20
-713.6860458811
 10
755.2455704838
 20
-718.6732712778
 10
748.4359586508
 20
-723.3923818815
 10
741.6060590238
 20
-727.8371535436
 10
734.7648797217
 20
-732.0017239478
 10
727.9214437404
 20
-735.880600342
 10
721.0847770524
 20
-739.4686667828
 10
714.2638967018
 20
-742.761190883
 10
707.4677989119
 20
-745.7538300533
 10
700.7054472195
 20
-748.4426372301
 10
693.985760653
 20
-750.8240660807
 10
687.3176019687
 20
-752.8949756814
 10
680.7097659616
 20
-754.6526346596
 10
674.1709678655
 20
-756.0947247967
 10
667.7098318586
 20
-757.2193440853
 10
661.3348796886
 20
-758.0250092379
 10
655.0545194334
 20
-758.5106576434
 10
648.8770344111
 20
-758.6756487684
 10
642.8105722555
 20
-758.5197650021
 10
639.7766981898
 20
-758.3179450488
  0
LWPOLYLINE
  5
1B6
330
1F
100
AcDbEntity
  8
0
  6
Continuous
 62
     1
370
    25
100
AcDbPolyline
 90
       16
 70
   128
 43
0.0
 10
895.9840281909
 20
-311.9961711024
 10
897.6582461901
 20
-314.4263751653
 10
900.8809269238
 20
-319.5377859416
 10
903.8822565267
 20
-324.9075113202
 10
906.6582764731
 20
-330.5284690411
 10
909.2053254033
 20
-336.3932454878
 10
911.5200439533
 20
-342.4941054657
 10
913.5993791851
 20
-348.8230024036
 10
915.4405886134
 20
-355.3715889672
 10
917.0412438229
 20
-362.131228068
 10
918.3992336707
 20
-369.0930042554
 10
919.5127670716
 20
-376.2477354753
 10
920.3803753594
 20
-383.5859851805
 10
921.0009142247
 20
-391.098074777
 10
921.3735652238
 20
-398.7740963889
 10
921.4978368585
 20
-406.6039259267
  0
LWPOLYLINE
  5
1B7
330
1F
100
AcDbEntity
  8
0
  6
Continuous
 62
     1
370
    25
100
AcDbPolyline
 90
       16
 70
   128
 43
0.0
 10
949.782108106
 20
-422.9320881631
 10
949.6578364713
 20
-415.1022586253
 10
949.2851854721
 20
-407.4262370134
 10
948.6646466068
 20
-399.914147417
 10
947.797038319
 20
-392.5758977118
 10
946.6835049182
 20
-385.4211664919
 10
945.3255150703
 20
-378.4593903045
 10
943.7248598609
 20
-371.6997512036
 10
941.8836504326
 20
-365.1511646401
 10
939.8043152008
 20
-358.8222677021
 10
937.4895966507
 20
-352.7214077243
 10
934.9425477205
 20
-346.8566312775
 10
932.1665277742
 20
-341.2356735567
 10
929.1651981713
 20
-335.8659481781
 10
925.9425174376
 20
-330.7545374017
 10
925.0498823287
 20
-329.4411953734
  0
LWPOLYLINE
  5
1B8
330
1F
100
AcDbEntity
  8
0
  6
Continuous
 62
     1
370
    25
100
AcDbPolyline
 90
       59
 70
   128
 43
0.0
 10
668.0299392513
 20
-774.6436034402
 10
671.094843503
 20
-774.8479272385
 10
677.1613056586
 20
-775.0038110048
 10
683.3387906809
 20
-774.8388198798
 10
689.6191509361
 20
-774.3531714744
 10
695.9941031061
 20
-773.5475063218
 10
702.455239113
 20
-772.4228870332
 10
708.9940372091
 20
-770.9807968961
 10
715.6018732162
 20
-769.2231379178
 10
722.2700319005
 20
-767.1522283172
 10
728.989718467
 20
-764.7707994665
 10
735.7520701593
 20
-762.0819922898
 10
742.5481679493
 20
-759.0893531194
 10
749.3690482999
 20
-755.7968290192
 10
756.2057149879
 20
-752.2087625784
 10
763.0491509692
 20
-748.3298861842
 10
769.8903302713
 20
-744.1653157801
 10
776.7202298983
 20
-739.720544118
 10
783.5298417312
 20
-735.0014335143
 10
790.3101844092
 20
-730.0142081175
 10
797.0523151751
 20
-724.7654456993
 10
803.7473416704
 20
-719.2620689786
 10
810.3864336636
 20
-713.5113364914
 10
816.9608346966
 20
-707.5208330172
 10
823.4618736335
 20
-701.2984595751
 10
829.8809760978
 20
-694.8524230032
 10
836.2096757807
 20
-688.1912251342
 10
842.439625608
 20
-681.3236515824
 10
848.5626087489
 20
-674.2587601555
 10
854.5705494536
 20
-667.0058689091
 10
860.4555237046
 20
-659.5745438558
 10
866.2097696677
 20
-651.9745863491
 10
871.8256979296
 20
-644.2160201557
 10
877.2959015072
 20
-636.3090782354
 10
882.6131656174
 20
-628.2641892441
 10
887.7704771927
 20
-620.0919637794
 10
892.7610341308
 20
-611.8031803861
 10
897.578254266
 20
-603.4087713401
 10
902.2157840507
 20
-594.9198082295
 10
906.6675069355
 20
-586.3474873519
 10
910.9275514357
 20
-577.7031149477
 10
914.9902988763
 20
-568.9980922875
 10
918.8503908019
 20
-560.2439006353
 10
922.5027360443
 20
-551.4520861051
 10
925.9425174376
 20
-542.6342444325
 10
929.1651981713
 20
-533.8020056811
 10
932.1665277742
 20
-524.9670189031
 10
934.9425477205
 20
-516.1409367752
 10
937.4895966507
 20
-507.3354002295
 10
939.8043152008
 20
-498.5620230999
 10
941.8836504326
 20
-489.8323768047
 10
943.7248598609
 20
-481.1579750845
 10
945.3255150703
 20
-472.5502588162
 10
946.6835049182
 20
-464.0205809242
 10
947.797038319
 20
-455.5801914057
 10
948.6646466068
 20
-447.2402224936
 10
949.2851854721
 20
-439.0116739736
 10
949.6578364713
 20
-430.9053986762
 10
949.782108106
 20
-422.9320881631
  0
LWPOLYLINE
  5
1B9
330
1F
100
AcDbEntity
  8
0
  6
Continuous
 62
     1
370
    25
100
AcDbPolyline
 90
       63
 70
   128
 43
0.0
 10
799.8664637097
 20
-344.1074522019
 10
795.3222592117
 20
-343.8158917559
 10
790.1759934878
 20
-343.7992363482
 10
784.9224869638
 20
-344.104725246
 10
779.5716025492
 20
-344.731784926
 10
774.1333859705
 20
-345.6792381491
 10
768.618046911
 20
-346.9453061709
 10
763.0359398436
 20
-348.527612081
 10
757.3975445909
 20
-350.4231852653
 10
751.713446651
 20
-352.6284669833
 10
745.9943173238
 20
-355.1393170489
 10
740.250893677
 20
-357.9510216035
 10
734.4939583884
 20
-361.0583019656
 10
728.7343195025
 20
-364.455324541
 10
722.9827901395
 20
-368.1357117748
 10
717.2501681948
 20
-372.0925541244
 10
711.5472160671
 20
-376.3184230319
 10
705.8846404531
 20
-380.8053848698
 10
700.2730722468
 20
-385.5450158362
 10
694.7230465814
 20
-390.5284177692
 10
689.2449830499
 20
-395.7462348523
 10
683.8491661444
 20
-401.1886711792
 10
678.5457259472
 20
-406.8455091444
 10
673.3446191131
 20
-412.7061286255
 10
668.2556101769
 20
-418.759526922
 10
663.288253221
 20
-424.994339411
 10
658.4518739391
 20
-431.3988608835
 10
653.755552128
 20
-437.9610675197
 10
649.2081046411
 20
-444.6686394622
 10
644.8180688359
 20
-451.5089839457
 10
640.593686546
 20
-458.4692589381
 10
636.5428886078
 20
-465.5363972503
 10
632.673279971
 20
-472.6971310686
 10
628.9921254216
 20
-479.9380168634
 10
625.5063359426
 20
-487.2454606284
 10
622.2224557395
 20
-494.6057434012
 10
619.1466499543
 20
-502.0050470202
 10
616.284693091
 20
-509.4294800659
 10
613.6419581745
 20
-516.8651039409
 10
611.2234066635
 20
-524.2979590385
 10
609.0335791358
 20
-531.7140909498
 10
607.0765867637
 20
-539.0995766621
 10
605.356103596
 20
-546.4405506975
 10
603.8753596599
 20
-553.7232311445
 10
602.6371348975
 20
-560.9339455314
 10
601.6437539465
 20
-568.0591564954
 10
600.8970817758
 20
-575.0854871974
 10
600.3985201843
 20
-581.9997464357
 10
600.1490051694
 20
-588.788953411
 10
600.1490051694
 20
-595.4403620966
 10
600.3985201843
 20
-601.9414851677
 10
600.8970817758
 20
-608.2801174451
 10
601.6437539465
 20
-614.4443588088
 10
602.6371348975
 20
-620.42263654
 10
603.8753596599
 20
-626.2037270467
 10
605.356103596
 20
-631.7767769356
 10
607.0765867637
 20
-637.1313233878
 10
609.0335791358
 20
-642.257313802
 10
611.2234066635
 20
-647.1451246666
 10
613.6419581745
 20
-651.7855796275
 10
616.284693091
 20
-656.1699667154
 10
619.1466499543
 20
-660.2900547016
 10
619.6140448611
 20
-660.910425415
  0
LWPOLYLINE
  5
1BA
330
1F
100
AcDbEntity
  8
0
  6
Continuous
 62
     1
370
    25
100
AcDbPolyline
 90
       63
 70
   128
 43
0.0
 10
647.3684872288
 20
-676.5343103388
 10
644.5689643385
 20
-672.4981289519
 10
641.926229422
 20
-668.113741864
 10
639.507677911
 20
-663.473286903
 10
637.3178503833
 20
-658.5854760384
 10
635.3608580112
 20
-653.4594856243
 10
633.6403748434
 20
-648.104939172
 10
632.1596309073
 20
-642.5318892831
 10
630.921406145
 20
-636.7507987764
 10
629.928025194
 20
-630.7725210453
 10
629.1813530233
 20
-624.6082796815
 10
628.6827914318
 20
-618.2696474042
 10
628.4332764169
 20
-611.7685243331
 10
628.4332764169
 20
-605.1171156475
 10
628.6827914318
 20
-598.3279086722
 10
629.1813530233
 20
-591.4136494339
 10
629.928025194
 20
-584.3873187319
 10
630.921406145
 20
-577.2621077679
 10
632.1596309073
 20
-570.051393381
 10
633.6403748434
 20
-562.768712934
 10
635.3608580112
 20
-555.4277388985
 10
637.3178503833
 20
-548.0422531863
 10
639.507677911
 20
-540.626121275
 10
641.926229422
 20
-533.1932661774
 10
644.5689643385
 20
-525.7576423023
 10
647.4309212018
 20
-518.3332092567
 10
650.506726987
 20
-510.9339056377
 10
653.79060719
 20
-503.5736228648
 10
657.276396669
 20
-496.2661790999
 10
660.9575512184
 20
-489.025293305
 10
664.8271598552
 20
-481.8645594867
 10
668.8779577935
 20
-474.7974211745
 10
673.1023400834
 20
-467.8371461822
 10
677.4923758885
 20
-460.9968016987
 10
682.0398233754
 20
-454.2892297561
 10
686.7361451866
 20
-447.7270231199
 10
691.5725244685
 20
-441.3225016474
 10
696.5398814244
 20
-435.0876891584
 10
701.6288903606
 20
-429.034290862
 10
706.8299971946
 20
-423.1736713808
 10
712.1334373918
 20
-417.5168334157
 10
717.5292542974
 20
-412.0743970888
 10
723.0073178288
 20
-406.8565800057
 10
728.5573434943
 20
-401.8731780727
 10
734.1689117005
 20
-397.1335471063
 10
739.8314873145
 20
-392.6465852683
 10
745.5344394423
 20
-388.4207163609
 10
751.267061387
 20
-384.4638740112
 10
757.01859075
 20
-380.7834867775
 10
762.7782296359
 20
-377.3864642021
 10
768.5351649245
 20
-374.2791838399
 10
774.2785885713
 20
-371.4674792853
 10
779.9977178985
 20
-368.9566292197
 10
785.6818158384
 20
-366.7513475018
 10
791.320211091
 20
-364.8557743175
 10
796.9023181585
 20
-363.2734684074
 10
802.417657218
 20
-362.0074003856
 10
807.8558737967
 20
-361.0599471625
 10
813.2067582112
 20
-360.4328874825
 10
818.4602647352
 20
-360.1273985846
 10
823.6065304591
 20
-360.1440539924
 10
828.6358938067
 20
-360.482822437
 10
829.3379003909
 20
-360.5567806439
  0
LWPOLYLINE
  5
1BB
330
1F
100
AcDbEntity
  8
0
  6
Continuous
 62
     1
370
    25
100
AcDbPolyline
 90
       22
 70
   128
 43
0.0
 10
885.5565246403
 20
-515.867475334
 10
884.7824404748
 20
-515.5949724022
 10
883.4342882051
 20
-515.4192380308
 10
881.9734957857
 20
-515.5638114568
 10
880.4360327738
 20
-516.0251328027
 10
878.8597566115
 20
-516.7918428058
 10
877.2834804491
 20
-517.8450625214
 10
875.7460174373
 20
-519.1588581846
 10
874.2852250178
 20
-520.7008797859
 10
872.9370727481
 20
-522.4331576359
 10
871.7347566115
 20
-524.3130373047
 10
870.7078816213
 20
-526.294229916
 10
869.8817328479
 20
-528.3279519324
 10
869.276652816
 20
-530.3641263685
 10
868.907540604
 20
-532.3526158518
 10
868.7834849796
 20
-534.2444571719
 10
868.907540604
 20
-535.9930669169
 10
869.276652816
 20
-537.5553885115
 10
869.8817328479
 20
-538.892952413
 10
870.7078816213
 20
-539.972823359
 10
871.7347566115
 20
-540.7684113429
 10
871.7353356414
 20
-540.7687456641
  0
LWPOLYLINE
  5
1BC
330
1F
100
AcDbEntity
  8
0
  6
Continuous
 62
     1
370
    25
100
AcDbPolyline
 90
       22
 70
   128
 43
0.0
 10
823.9317100013
 20
-622.6047849824
 10
823.1576258359
 20
-622.3322820505
 10
821.8094735662
 20
-622.1565476791
 10
820.3486811468
 20
-622.3011211052
 10
818.8112181349
 20
-622.762442451
 10
817.2349419726
 20
-623.5291524542
 10
815.6586658102
 20
-624.5823721698
 10
814.1212027984
 20
-625.896167833
 10
812.6604103789
 20
-627.4381894343
 10
811.3122581092
 20
-629.1704672842
 10
810.1099419726
 20
-631.0503469531
 10
809.0830669824
 20
-633.0315395643
 10
808.256918209
 20
-635.0652615808
 10
807.6518381771
 20
-637.1014360168
 10
807.282725965
 20
-639.0899255002
 10
807.1586703406
 20
-640.9817668203
 10
807.282725965
 20
-642.7303765653
 10
807.6518381771
 20
-644.2926981598
 10
808.256918209
 20
-645.6302620613
 10
809.0830669824
 20
-646.7101330073
 10
810.1099419726
 20
-647.5057209913
 10
810.1105210025
 20
-647.5060553125
  0
LWPOLYLINE
  5
1BD
330
1F
100
AcDbEntity
  8
0
  6
Continuous
 62
     1
370
    25
100
AcDbPolyline
 90
       22
 70
   128
 43
0.0
 10
908.1127723016
 20
-405.6368470734
 10
907.3386881361
 20
-405.3643441415
 10
905.9905358665
 20
-405.1886097701
 10
904.529743447
 20
-405.3331831961
 10
902.9922804352
 20
-405.794504542
 10
901.4160042728
 20
-406.5612145452
 10
899.8397281105
 20
-407.6144342608
 10
898.3022650986
 20
-408.928229924
 10
896.8414726791
 20
-410.4702515253
 10
895.4933204095
 20
-412.2025293752
 10
894.2910042728
 20
-414.0824090441
 10
893.2641292827
 20
-416.0636016553
 10
892.4379805093
 20
-418.0973236718
 10
891.8329004773
 20
-420.1334981078
 10
891.4637882653
 20
-422.1219875912
 10
891.3397326409
 20
-424.0138289113
 10
891.4637882653
 20
-425.7624386562
 10
891.8329004773
 20
-427.3247602508
 10
892.4379805093
 20
-428.6623241523
 10
893.2641292827
 20
-429.7421950983
 10
894.2910042728
 20
-430.5377830823
 10
894.2915833028
 20
-430.5381174035
  0
LWPOLYLINE
  5
1BE
330
1F
100
AcDbEntity
  8
0
  6
Continuous
 62
     1
370
    25
100
AcDbPolyline
 90
       22
 70
   128
 43
0.0
 10
739.7506477011
 20
-697.2486000959
 10
738.9765635356
 20
-696.976097164
 10
737.628411266
 20
-696.8003627926
 10
736.1676188465
 20
-696.9449362186
 10
734.6301558346
 20
-697.4062575645
 10
733.0538796723
 20
-698.1729675677
 10
731.47760351
 20
-699.2261872833
 10
729.9401404981
 20
-700.5399829464
 10
728.4793480786
 20
-702.0820045478
 10
727.131195809
 20
-703.8142823977
 10
725.9288796723
 20
-705.6941620666
 10
724.9020046821
 20
-707.6753546778
 10
724.0758559088
 20
-709.7090766943
 10
723.4707758768
 20
-711.7452511303
 10
723.1016636648
 20
-713.7337406137
 10
722.9776080404
 20
-715.6255819338
 10
723.1016636648
 20
-717.3741916787
 10
723.4707758768
 20
-718.9365132733
 10
724.0758559088
 20
-720.2740771748
 10
724.9020046821
 20
-721.3539481208
 10
725.9288796723
 20
-722.1495361048
 10
725.9294587023
 20
-722.149870426
  0
LWPOLYLINE
  5
1BF
330
1F
100
AcDbEntity
  8
0
  6
Continuous
 62
     1
370
    25
100
AcDbPolyline
 90
       22
 70
   128
 43
0.0
 10
885.5565246403
 20
-321.449108024
 10
884.7824404748
 20
-321.1766050922
 10
883.4342882052
 20
-321.0008707208
 10
881.9734957857
 20
-321.1454441468
 10
880.4360327738
 20
-321.6067654927
 10
878.8597566115
 20
-322.3734754958
 10
877.2834804491
 20
-323.4266952114
 10
875.7460174373
 20
-324.7404908746
 10
874.2852250178
 20
-326.2825124759
 10
872.9370727481
 20
-328.0147903259
 10
871.7347566115
 20
-329.8946699947
 10
870.7078816213
 20
-331.875862606
 10
869.8817328479
 20
-333.9095846224
 10
869.276652816
 20
-335.9457590585
 10
868.907540604
 20
-337.9342485418
 10
868.7834849796
 20
-339.8260898619
 10
868.907540604
 20
-341.5746996069
 10
869.276652816
 20
-343.1370212015
 10
869.8817328479
 20
-344.4745851029
 10
870.7078816213
 20
-345.554456049
 10
871.7347566115
 20
-346.3500440329
 10
871.7353356414
 20
-346.3503783541
  0
LWPOLYLINE
  5
1C0
330
1F
100
AcDbEntity
  8
0
  6
Continuous
 62
     1
370
    25
100
AcDbPolyline
 90
       22
 70
   128
 43
0.0
 10
655.5695854008
 20
-719.7981706949
 10
654.7955012354
 20
-719.525667763
 10
653.4473489657
 20
-719.3499333916
 10
651.9865565462
 20
-719.4945068176
 10
650.4490935344
 20
-719.9558281635
 10
648.872817372
 20
-720.7225381667
 10
647.2965412097
 20
-721.7757578823
 10
645.7590781978
 20
-723.0895535454
 10
644.2982857783
 20
-724.6315751468
 10
642.9501335087
 20
-726.3638529967
 10
641.747817372
 20
-728.2437326656
 10
640.7209423819
 20
-730.2249252768
 10
639.8947936085
 20
-732.2586472933
 10
639.2897135765
 20
-734.2948217293
 10
638.9206013645
 20
-736.2833112127
 10
638.7965457401
 20
-738.1751525328
 10
638.9206013645
 20
-739.9237622777
 10
639.2897135765
 20
-741.4860838723
 10
639.8947936085
 20
-742.8236477738
 10
640.7209423819
 20
-743.9035187198
 10
641.747817372
 20
-744.6991067038
 10
641.748396402
 20
-744.699441025
  0
LWPOLYLINE
  5
1C1
330
1F
100
AcDbEntity
  8
0
  6
Continuous
 62
     1
370
    25
100
AcDbPolyline
 90
       22
 70
   128
 43
0.0
 10
823.9317100014
 20
-285.8622948769
 10
823.1576258359
 20
-285.589791945
 10
821.8094735662
 20
-285.4140575736
 10
820.3486811468
 20
-285.5586309996
 10
818.8112181349
 20
-286.0199523455
 10
817.2349419726
 20
-286.7866623487
 10
815.6586658102
 20
-287.8398820642
 10
814.1212027984
 20
-289.1536777274
 10
812.6604103789
 20
-290.6956993288
 10
811.3122581092
 20
-292.4279771787
 10
810.1099419726
 20
-294.3078568475
 10
809.0830669824
 20
-296.2890494588
 10
808.256918209
 20
-298.3227714753
 10
807.6518381771
 20
-300.3589459113
 10
807.2827259651
 20
-302.3474353946
 10
807.1586703407
 20
-304.2392767148
 10
807.2827259651
 20
-305.9878864597
 10
807.6518381771
 20
-307.5502080543
 10
808.256918209
 20
-308.8877719558
 10
809.0830669824
 20
-309.9676429018
 10
810.1099419726
 20
-310.7632308857
 10
810.1105210025
 20
-310.763565207
  0
LWPOLYLINE
  5
1C2
330
1F
100
AcDbEntity
  8
0
  6
Continuous
 62
     1
370
    25
100
AcDbPolyline
 90
       22
 70
   128
 43
0.0
 10
593.9447707619
 20
-684.2113575477
 10
593.1706865964
 20
-683.9388546158
 10
591.8225343268
 20
-683.7631202444
 10
590.3617419073
 20
-683.9076936705
 10
588.8242788955
 20
-684.3690150164
 10
587.2480027331
 20
-685.1357250195
 10
585.6717265708
 20
-686.1889447351
 10
584.1342635589
 20
-687.5027403983
 10
582.6734711394
 20
-689.0447619996
 10
581.3253188698
 20
-690.7770398496
 10
580.1230027331
 20
-692.6569195184
 10
579.096127743
 20
-694.6381121297
 10
578.2699789696
 20
-696.6718341461
 10
577.6648989376
 20
-698.7080085822
 10
577.2957867256
 20
-700.6964980655
 10
577.1717311012
 20
-702.5883393856
 10
577.2957867256
 20
-704.3369491306
 10
577.6648989376
 20
-705.8992707251
 10
578.2699789696
 20
-707.2368346266
 10
579.096127743
 20
-708.3167055726
 10
580.1230027331
 20
-709.1122935566
 10
580.1235817631
 20
-709.1126278778
  0
LWPOLYLINE
  5
1C3
330
1F
100
AcDbEntity
  8
0
  6
Continuous
 62
     1
370
    25
100
AcDbPolyline
 90
       22
 70
   128
 43
0.0
 10
739.7506477011
 20
-308.4118654758
 10
738.9765635356
 20
-308.139362544
 10
737.628411266
 20
-307.9636281726
 10
736.1676188465
 20
-308.1082015986
 10
734.6301558346
 20
-308.5695229445
 10
733.0538796723
 20
-309.3362329477
 10
731.47760351
 20
-310.3894526632
 10
729.9401404981
 20
-311.7032483264
 10
728.4793480786
 20
-313.2452699278
 10
727.131195809
 20
-314.9775477777
 10
725.9288796723
 20
-316.8574274465
 10
724.9020046822
 20
-318.8386200578
 10
724.0758559088
 20
-320.8723420743
 10
723.4707758768
 20
-322.9085165103
 10
723.1016636648
 20
-324.8970059936
 10
722.9776080404
 20
-326.7888473138
 10
723.1016636648
 20
-328.5374570587
 10
723.4707758768
 20
-330.0997786533
 10
724.0758559088
 20
-331.4373425548
 10
724.9020046822
 20
-332.5172135008
 10
725.9288796723
 20
-333.3128014847
 10
725.9294587023
 20
-333.313135806
  0
LWPOLYLINE
  5
1C4
330
1F
100
AcDbEntity
  8
0
  6
Continuous
 62
     1
370
    25
100
AcDbPolyline
 90
       22
 70
   128
 43
0.0
 10
571.3885231006
 20
-600.0236184983
 10
570.6144389351
 20
-599.7511155665
 10
569.2662866655
 20
-599.5753811951
 10
567.805494246
 20
-599.7199546211
 10
566.2680312341
 20
-600.181275967
 10
564.6917550718
 20
-600.9479859702
 10
563.1154789094
 20
-602.0012056857
 10
561.5780158976
 20
-603.3150013489
 10
560.1172234781
 20
-604.8570229503
 10
558.7690712084
 20
-606.5893008002
 10
557.5667550718
 20
-608.469180469
 10
556.5398800816
 20
-610.4503730803
 10
555.7137313083
 20
-612.4840950968
 10
555.1086512763
 20
-614.5202695328
 10
554.7395390643
 20
-616.5087590161
 10
554.6154834399
 20
-618.4006003363
 10
554.7395390643
 20
-620.1492100812
 10
555.1086512763
 20
-621.7115316758
 10
555.7137313083
 20
-623.0490955773
 10
556.5398800816
 20
-624.1289665233
 10
557.5667550718
 20
-624.9245545072
 10
557.5673341017
 20
-624.9248888285
  0
LWPOLYLINE
  5
1C5
330
1F
100
AcDbEntity
  8
0
  6
Continuous
 62
     1
370
    25
100
AcDbPolyline
 90
       22
 70
   128
 43
0.0
 10
655.5695854008
 20
-383.0556805893
 10
654.7955012354
 20
-382.7831776575
 10
653.4473489657
 20
-382.6074432861
 10
651.9865565462
 20
-382.7520167121
 10
650.4490935344
 20
-383.213338058
 10
648.872817372
 20
-383.9800480612
 10
647.2965412097
 20
-385.0332677767
 10
645.7590781978
 20
-386.3470634399
 10
644.2982857784
 20
-387.8890850413
 10
642.9501335087
 20
-389.6213628912
 10
641.747817372
 20
-391.50124256
 10
640.7209423819
 20
-393.4824351713
 10
639.8947936085
 20
-395.5161571878
 10
639.2897135766
 20
-397.5523316238
 10
638.9206013645
 20
-399.5408211071
 10
638.7965457401
 20
-401.4326624273
 10
638.9206013645
 20
-403.1812721722
 10
639.2897135766
 20
-404.7435937668
 10
639.8947936085
 20
-406.0811576683
 10
640.7209423819
 20
-407.1610286143
 10
641.747817372
 20
-407.9566165982
 10
641.748396402
 20
-407.9569509194
  0
LWPOLYLINE
  5
1C6
330
1F
100
AcDbEntity
  8
0
  6
Continuous
 62
     1
370
    25
100
AcDbPolyline
 90
       22
 70
   128
 43
0.0
 10
593.9447707619
 20
-489.7929902377
 10
593.1706865965
 20
-489.5204873058
 10
591.8225343268
 20
-489.3447529344
 10
590.3617419073
 20
-489.4893263605
 10
588.8242788955
 20
-489.9506477063
 10
587.2480027331
 20
-490.7173577095
 10
585.6717265708
 20
-491.7705774251
 10
584.1342635589
 20
-493.0843730883
 10
582.6734711394
 20
-494.6263946896
 10
581.3253188698
 20
-496.3586725396
 10
580.1230027331
 20
-498.2385522084
 10
579.096127743
 20
-500.2197448197
 10
578.2699789696
 20
-502.2534668361
 10
577.6648989376
 20
-504.2896412722
 10
577.2957867256
 20
-506.2781307555
 10
577.1717311012
 20
-508.1699720756
 10
577.2957867256
 20
-509.9185818206
 10
577.6648989376
 20
-511.4809034151
 10
578.2699789696
 20
-512.8184673166
 10
579.096127743
 20
-513.8983382626
 10
580.1230027331
 20
-514.6939262466
 10
580.1235817631
 20
-514.6942605678
  0
ENDSEC
  0
SECTION
  2
OBJECTS
  0
DICTIONARY
  5
C
330
0
100
AcDbDictionary
281
     1
  3
ACAD_GROUP
350
D
  3
ACAD_LAYOUT
350
1A
  3
ACAD_MLINESTYLE
350
17
  3
ACAD_PLOTSETTINGS
350
19
  3
ACAD_PLOTSTYLENAME
350
E
  3
ACAD_SCALELIST
350
47
  3
DWGPROPS
350
1C7
  0
DICTIONARY
  5
D
102
{ACAD_REACTORS
330
C
102
}
330
C
100
AcDbDictionary
281
     1
  0
DICTIONARY
  5
1A
102
{ACAD_REACTORS
330
C
102
}
330
C
100
AcDbDictionary
281
     1
  3
Layout1
350
1E
  3
Layout2
350
26
  3
Model
350
22
  0
DICTIONARY
  5
17
102
{ACAD_REACTORS
330
C
102
}
330
C
100
AcDbDictionary
281
     1
  3
Standard
350
18
  0
DICTIONARY
  5
19
102
{ACAD_REACTORS
330
C
102
}
330
C
100
AcDbDictionary
281
     1
  0
ACDBDICTIONARYWDFLT
  5
E
102
{ACAD_REACTORS
330
C
102
}
330
C
100
AcDbDictionary
281
     1
  3
Normal
350
F
100
AcDbDictionaryWithDefault
340
F
  0
DICTIONARY
  5
47
102
{ACAD_REACTORS
330
C
102
}
330
C
100
AcDbDictionary
281
     1
  3
A0
350
48
  3
A1
350
49
  3
A2
350
4A
  3
A3
350
4B
  3
A4
350
4C
  3
A5
350
4D
  3
A6
350
4E
  3
A7
350
4F
  3
A8
350
50
  3
A9
350
51
  3
B0
350
52
  3
B1
350
53
  3
B2
350
54
  3
B3
350
55
  3
B4
350
56
  3
B5
350
57
  3
B6
350
58
  3
B7
350
59
  3
B8
350
5A
  3
B9
350
5B
  3
C0
350
5C
  3
C1
350
5D
  3
C2
350
5E
  3
C3
350
5F
  3
C4
350
60
  3
C5
350
61
  3
C6
350
62
  3
C7
350
63
  3
C8
350
64
  3
C9
350
65
  3
D0
350
66
  3
D1
350
67
  3
D2
350
68
  0
XRECORD
  5
1C7
102
{ACAD_REACTORS
330
C
102
}
330
C
100
AcDbXrecord
280
     1
  1
DWGPROPS COOKIE
  2

  3

  4

  6

  7

  8
b.kav
  9

300
=
301
=
302
=
303
=
304
=
305
=
306
=
307
=
308
=
309
=
 40
0.0
 41
2459741.463749699
 42
2459741.463752014
  1

 90
        0
  0
LAYOUT
  5
1E
102
{ACAD_REACTORS
330
1A
102
}
330
1A
100
AcDbPlotSettings
  1

  2
none_device
  4

  6

 40
0.0
 41
0.0
 42
0.0
 43
0.0
 44
0.0
 45
0.0
 46
0.0
 47
0.0
 48
0.0
 49
0.0
140
0.0
141
0.0
142
1.0
143
1.0
 70
   688
 72
     1
 73
     0
 74
     5
  7

 75
    16
147
1.0
148
0.0
149
0.0
100
AcDbLayout
  1
Layout1
 70
     1
 71
     1
 10
0.0
 20
0.0
 11
420.0
 21
297.0
 12
0.0
 22
0.0
 32
0.0
 14
1.0000000000E+20
 24
1.0000000000E+20
 34
1.0000000000E+20
 15
-1.0000000000E+20
 25
-1.0000000000E+20
 35
-1.0000000000E+20
146
0.0
 13
0.0
 23
0.0
 33
0.0
 16
1.0
 26
0.0
 36
0.0
 17
0.0
 27
1.0
 37
0.0
 76
     0
330
1B
  0
LAYOUT
  5
26
102
{ACAD_REACTORS
330
1A
102
}
330
1A
100
AcDbPlotSettings
  1

  2
none_device
  4

  6

 40
0.0
 41
0.0
 42
0.0
 43
0.0
 44
0.0
 45
0.0
 46
0.0
 47
0.0
 48
0.0
 49
0.0
140
0.0
141
0.0
142
1.0
143
1.0
 70
   688
 72
     1
 73
     0
 74
     5
  7

 75
    16
147
1.0
148
0.0
149
0.0
100
AcDbLayout
  1
Layout2
 70
     1
 71
     2
 10
0.0
 20
0.0
 11
0.0
 21
0.0
 12
0.0
 22
0.0
 32
0.0
 14
0.0
 24
0.0
 34
0.0
 15
0.0
 25
0.0
 35
0.0
146
0.0
 13
0.0
 23
0.0
 33
0.0
 16
1.0
 26
0.0
 36
0.0
 17
0.0
 27
1.0
 37
0.0
 76
     0
330
23
  0
LAYOUT
  5
22
102
{ACAD_REACTORS
330
1A
102
}
330
1A
100
AcDbPlotSettings
  1

  2
none_device
  4
Letter_(8.50_x_11.00_Inches)
  6

 40
6.35
 41
6.35
 42
6.35000508
 43
6.35000508
 44
215.9
 45
279.4
 46
0.0
 47
0.0
 48
0.0
 49
0.0
140
0.0
141
0.0
142
1.0
143
1.0
 70
  1712
 72
     1
 73
     0
 74
     0
  7

 75
     0
147
1.0
148
0.0
149
0.0
100
AcDbLayout
  1
Model
 70
     1
 71
     0
 10
0.0
 20
0.0
 11
279.4
 21
215.9
 12
0.0
 22
0.0
 32
0.0
 14
0.0
 24
0.0
 34
0.0
 15
279.4
 25
215.9
 35
0.0
146
0.0
 13
0.0
 23
0.0
 33
0.0
 16
1.0
 26
0.0
 36
0.0
 17
0.0
 27
1.0
 37
0.0
 76
     0
330
1F
331
29
  0
MLINESTYLE
  5
18
102
{ACAD_REACTORS
330
17
102
}
330
17
100
AcDbMlineStyle
  2
Standard
 70
     0
  3

 62
   256
 51
90.0
 52
90.0
 71
     2
 49
0.5
 62
   256
  6
BYLAYER
 49
-0.5
 62
   256
  6
BYLAYER
  0
ACDBPLACEHOLDER
  5
F
102
{ACAD_REACTORS
330
E
102
}
330
E
  0
SCALE
  5
48
102
{ACAD_REACTORS
330
47
102
}
330
47
100
AcDbScale
 70
     0
300
1:1
140
1.0
141
1.0
290
     1
  0
SCALE
  5
49
102
{ACAD_REACTORS
330
47
102
}
330
47
100
AcDbScale
 70
     0
300
1:2
140
1.0
141
2.0
290
     0
  0
SCALE
  5
4A
102
{ACAD_REACTORS
330
47
102
}
330
47
100
AcDbScale
 70
     0
300
1:4
140
1.0
141
4.0
290
     0
  0
SCALE
  5
4B
102
{ACAD_REACTORS
330
47
102
}
330
47
100
AcDbScale
 70
     0
300
1:5
140
1.0
141
5.0
290
     0
  0
SCALE
  5
4C
102
{ACAD_REACTORS
330
47
102
}
330
47
100
AcDbScale
 70
     0
300
1:8
140
1.0
141
8.0
290
     0
  0
SCALE
  5
4D
102
{ACAD_REACTORS
330
47
102
}
330
47
100
AcDbScale
 70
     0
300
1:10
140
1.0
141
10.0
290
     0
  0
SCALE
  5
4E
102
{ACAD_REACTORS
330
47
102
}
330
47
100
AcDbScale
 70
     0
300
1:16
140
1.0
141
16.0
290
     0
  0
SCALE
  5
4F
102
{ACAD_REACTORS
330
47
102
}
330
47
100
AcDbScale
 70
     0
300
1:20
140
1.0
141
20.0
290
     0
  0
SCALE
  5
50
102
{ACAD_REACTORS
330
47
102
}
330
47
100
AcDbScale
 70
     0
300
1:30
140
1.0
141
30.0
290
     0
  0
SCALE
  5
51
102
{ACAD_REACTORS
330
47
102
}
330
47
100
AcDbScale
 70
     0
300
1:40
140
1.0
141
40.0
290
     0
  0
SCALE
  5
52
102
{ACAD_REACTORS
330
47
102
}
330
47
100
AcDbScale
 70
     0
300
1:50
140
1.0
141
50.0
290
     0
  0
SCALE
  5
53
102
{ACAD_REACTORS
330
47
102
}
330
47
100
AcDbScale
 70
     0
300
1:100
140
1.0
141
100.0
290
     0
  0
SCALE
  5
54
102
{ACAD_REACTORS
330
47
102
}
330
47
100
AcDbScale
 70
     0
300
2:1
140
2.0
141
1.0
290
     0
  0
SCALE
  5
55
102
{ACAD_REACTORS
330
47
102
}
330
47
100
AcDbScale
 70
     0
300
4:1
140
4.0
141
1.0
290
     0
  0
SCALE
  5
56
102
{ACAD_REACTORS
330
47
102
}
330
47
100
AcDbScale
 70
     0
300
8:1
140
8.0
141
1.0
290
     0
  0
SCALE
  5
57
102
{ACAD_REACTORS
330
47
102
}
330
47
100
AcDbScale
 70
     0
300
10:1
140
10.0
141
1.0
290
     0
  0
SCALE
  5
58
102
{ACAD_REACTORS
330
47
102
}
330
47
100
AcDbScale
 70
     0
300
100:1
140
100.0
141
1.0
290
     0
  0
SCALE
  5
59
102
{ACAD_REACTORS
330
47
102
}
330
47
100
AcDbScale
 70
     0
300
1/128" = 1'-0"
140
0.0078125
141
12.0
290
     0
  0
SCALE
  5
5A
102
{ACAD_REACTORS
330
47
102
}
330
47
100
AcDbScale
 70
     0
300
1/64" = 1'-0"
140
0.015625
141
12.0
290
     0
  0
SCALE
  5
5B
102
{ACAD_REACTORS
330
47
102
}
330
47
100
AcDbScale
 70
     0
300
1/32" = 1'-0"
140
0.03125
141
12.0
290
     0
  0
SCALE
  5
5C
102
{ACAD_REACTORS
330
47
102
}
330
47
100
AcDbScale
 70
     0
300
1/16" = 1'-0"
140
0.0625
141
12.0
290
     0
  0
SCALE
  5
5D
102
{ACAD_REACTORS
330
47
102
}
330
47
100
AcDbScale
 70
     0
300
3/32" = 1'-0"
140
0.09375
141
12.0
290
     0
  0
SCALE
  5
5E
102
{ACAD_REACTORS
330
47
102
}
330
47
100
AcDbScale
 70
     0
300
1/8" = 1'-0"
140
0.125
141
12.0
290
     0
  0
SCALE
  5
5F
102
{ACAD_REACTORS
330
47
102
}
330
47
100
AcDbScale
 70
     0
300
3/16" = 1'-0"
140
0.1875
141
12.0
290
     0
  0
SCALE
  5
60
102
{ACAD_REACTORS
330
47
102
}
330
47
100
AcDbScale
 70
     0
300
1/4" = 1'-0"
140
0.25
141
12.0
290
     0
  0
SCALE
  5
61
102
{ACAD_REACTORS
330
47
102
}
330
47
100
AcDbScale
 70
     0
300
3/8" = 1'-0"
140
0.375
141
12.0
290
     0
  0
SCALE
  5
62
102
{ACAD_REACTORS
330
47
102
}
330
47
100
AcDbScale
 70
     0
300
1/2" = 1'-0"
140
0.5
141
12.0
290
     0
  0
SCALE
  5
63
102
{ACAD_REACTORS
330
47
102
}
330
47
100
AcDbScale
 70
     0
300
3/4" = 1'-0"
140
0.75
141
12.0
290
     0
  0
SCALE
  5
64
102
{ACAD_REACTORS
330
47
102
}
330
47
100
AcDbScale
 70
     0
300
1" = 1'-0"
140
1.0
141
12.0
290
     0
  0
SCALE
  5
65
102
{ACAD_REACTORS
330
47
102
}
330
47
100
AcDbScale
 70
     0
300
1-1/2" = 1'-0"
140
1.5
141
12.0
290
     0
  0
SCALE
  5
66
102
{ACAD_REACTORS
330
47
102
}
330
47
100
AcDbScale
 70
     0
300
3" = 1'-0"
140
3.0
141
12.0
290
     0
  0
SCALE
  5
67
102
{ACAD_REACTORS
330
47
102
}
330
47
100
AcDbScale
 70
     0
300
6" = 1'-0"
140
6.0
141
12.0
290
     0
  0
SCALE
  5
68
102
{ACAD_REACTORS
330
47
102
}
330
47
100
AcDbScale
 70
     0
300
1'-0" = 1'-0"
140
12.0
141
12.0
290
     0
  0
ENDSEC
  0
EOF
